All That Remains - Regret Not Chords & Tabs

 

Regret Not Chords & Tabs

All That Remains Chords & Tabs

Version: 1 Type: Tab 0 ratings
1 star 2 stars 3 stars 4 stars 5 stars
comments

Regret Not Tab

Hey odds are alot of this isnt all that correct but i checked every search engine and
tab site i knew and none had it. So heres the closest thing i could come up with so
that anyone else can mess with it and get it right.
try to enjoy my attempt at Regret Not.

--------------------------------|
--------------------------------|
-2h3-2--2--2h3-2----------------|
-------5--------5-3-2-5-2h3p0---|
--------------------------------|
--------------------------------|

---------------------------------|
---------------------------------|
-2h3-2---2--2h3-2---------2------|
-------5----------5-3-2-5--------|
---------------------------------|
---------------------------------|
Theres alot of repeating of that when other guitars come in
and play alot of this on different scales and other stuff
[ Tab from: http://www.guitartabs.cc/tabs/a/all_that_remains/regret_not_tab.html ]
------------------------------------------------------------------------|x4
------------------------------------------------------------------------|x4
---7---------7-7-5-7---------7-7-5-3---------3-3-2-3--------------------|x4
---5---------5-5-5-7---------5-5-5-3---------3-3-2-3-----------5-5-5-5--|x4
---5---------5-5-3-5---------5-5-3-1---------1-1-0-1--------------------|x4
-----0-0-0-0---------0-0-0-0---------0-0-0-0----------0-0-0-0-0---------|x4

-----------------------------------------------------------------|
-----------------------------------------------------------------|
-----------------------------------------------------------------|
-7-7-7-5-5-5-8-7-5-8-7-5-3-3-3-2-2-2-5-5-5-3-3-3-----------------|
-----------------------------------------------------------------|
-----------------------------------------------------------------|

heres a start for anyone looking for this tab....hopefully it helps a little
Comments