All That Remains - Passion Chords & Tabs

 

Passion Chords & Tabs

All That Remains Chords & Tabs

Version: 1 Type: Tab 0 ratings
1 star 2 stars 3 stars 4 stars 5 stars
comments

Passion Tab

ALL THAT REMAINS-PASSION
as performed on the album "This Darkened Heart"

Tabbed by Andrew P. (BurningnewsxXx)
heresyourhorror@gmail.com

If you have any corrections, suggestions, or if you wish to help me complete this TAB
please email me at the above address.
This is my first TAB but I believe so far it is 95% correct

Intro: (0:00-0:20)
[ Tab from: http://www.guitartabs.cc/tabs/a/all_that_remains/passion_tab.html ]
Guitar 1: (0:00-0:20)
e|-----------------------------------------------------------|
B|-----------------------------------------------------------|
G|---------------------------------5---5-7-5--------5-7-5----| X4
D|-----7-8-7-----------7-8-7---------7------7-7----------7-7-|
A|-5-8-------8-5-8-5-8-------8-5-8-----------8--5-8-------8--|
D|-----------------------------------------------------------|

Guitar 2: (0:03)
e|-----------------------------|
B|-----------------------------|
G|-7====hold=================M-|
D|-7=====for=3=seconds=======U-|
A|-5=========================T-|
D|---------------------------E-|

  (0:08)                      (0:10)
e|---------------------------|-------------------------------|
B|---------------------------|--------------------------10-8-|
G|-7====////////////////////-|----------7-5--------10---9--7-|
D|-7==hold/slow pick slide//-|-0----2-2-7-5--------10---7--5-|
A|-5=====///////////////////-|-0----2-2-5-3----7/8-----------|
D|---------------------------|-0-00-2-2-----00--------0------|
                                 ''         ''        '

Feel free to add this to your TAB
Comments