All That Remains - Now Let Them Tremble Chords & Tabs

 

All That Remains Chords & Tabs

Version: 1 Type: Tab 0 ratings
1 star 2 stars 3 stars 4 stars 5 stars
comments

Now Let Them Tremble Tab

   
All that Remains!
Tabbed by: Mike Gillis (mike3oo)
Tuning: Drop C# [ C# G# C# F# A# D# ]



(0:00-0:14)
*GUITAR 1
D#|---------------------------------|
A#|---------------------------------|
F#|---------------------------------|
C#|---------------------------------| (X4)
G#|---------------------------------|
C#|-00000--00000-00000-00000-00000--|

==============================================================================

(0:15-0:30)
*GUITAR 1
D#|------------------------------------------------------------------|
A#|------------------------------------------------------------------|
F#|------------------------------------------------------------------|
C#|------------------------------------------------------------------|
G#|------------------------------------------------------------------|
C#|-00000--00000-00000-00000-00000---00000--00000-00000-00000-00000--| 
                                                                            
                                                                        (X2)
**GUITAR 2                                                                 
D#|------------------------------------------------------------------| 
A#|------------------------------------------------------------------|
F#|------------------------------------------------------------------|
C#|-7~~~~~~~~~~~~~~~~~~~~~~~~~~~~~~~~6~~~~~~~~~~~~~~~~~~~~~~~~~~~~~--|
G#|-5~~~~~~~~~~~~~~~~~~~~~~~~~~~~~~~~4~~~~~~~~~~~~~~~~~~~~~~~~~~~~~--|
C#|------------------------------------------------------------------|

==============================================================================

*GUITAR 1
D#|-----------------|
A#|-----------------|
F#|-----------------|
C#|-----------------|
G#|------12>>>>>>>--|
C#|-000-------------|

==============================================================================

(0:31-0:45)
*GUITAR 1
D#|--------------------------------------------------------| 
A#|--------------------------------------------------------|  
F#|--------------------------------------------------------|   
C#|-------------------15-15-15-15-------------14-14-14-14--|    
G#|-12-12-12-12-12-12-------------12-12-12-12--------------|    
C#|--------------------------------------------------------|      
                                                                  
                                                                    
D#|--------------------------------------------|                     
A#|--------------------------------------------|                     
F#|--------------------------------------------|     
C#|-------------12-12-12-12-------11-11--------|                    
G#|-12-12-12-12-------------12-12-------12-12--|                    
C#|--------------------------------------------|                  
                                                                   (X2)
[ Tab from: http://www.guitartabs.cc/tabs/a/all_that_remains/now_let_them_tremble_tab.html ]
D#|--------------------------------------------------------|        
A#|--------------------------------------------------------|       
F#|--------------------------------------------------------|      
C#|-------------------11-11-11-11-------------14-14-14-14--|   
G#|-12-12-12-12-12-12-------------12-12-12-12--------------|       
C#|--------------------------------------------------------|       
                                                                  
                                                                 
D#|--------------------------------------------|             
A#|--------------------------------------------|            
F#|--------------------------------------------|           
C#|-------------12-12-12-12-------11-11--------|
G#|-12-12-12-12-------------12-12-------12-12--|
C#|--------------------------------------------|


**GUITAR 2
D#|---------------------------------|
A#|---------------------------------|
F#|---------------------------------|
C#|---------------------------------| (X4)
G#|---------------------------------|
C#|-00000--00000-00000-00000-00000--|


D#|-----------------|
A#|-----------------|
F#|-----------------|
C#|-----------------|
G#|------12>>>>>>>--|
C#|-000-------------|


***GUITAR 3
D#|---------------------| 
A#|---------------------|
F#|---------------------|
C#|-7~~~~~~~~~6~~~~~~~--| (X2)
G#|-5~~~~~~~~~4~~~~~~~--|
C#|---------------------|

==============================================================================


(0:46-1:00)
GUITAR 1&3
D#|--------------------------------------------------------------------| 
A#|--------------------------------------------------------------------|  
F#|-------------------14-14-14-14-------------12-12-12-12--------------|   
C#|-12-12-12-12-12-12-------------12-12-12-12-------------12-12-12-12--|    
G#|--------------------------------------------------------------------|    
C#|--------------------------------------------------------------------|       
                                                                  
                                                                    
D#|------------------------------| 
A#|------------------------------|  
F#|-10-10-10-10-------9-9--------|   
C#|-------------12-12-----12-12--|    
G#|------------------------------|    
C#|------------------------------|                   
                                                                   (X2)

D#|----------------------------------------------------------------| 
A#|----------------------------------------------------------------|  
F#|-------------------9-9-9-9-------------12-12-12-12--------------|   
C#|-12-12-12-12-12-12---------12-12-12-12-------------12-12-12-12--|    
G#|----------------------------------------------------------------|    
C#|----------------------------------------------------------------|         
                                                                  
                                                                 
D#|------------------------------| 
A#|------------------------------|  
F#|-10-10-10-10-------9-9--------|   
C#|-------------12-12-----12-12--|    
G#|------------------------------|    
C#|------------------------------| 


GUITAR 2
D#|---------------------------------|
A#|---------------------------------|
F#|---------------------------------|
C#|---------------------------------| (X4)
G#|---------------------------------|
C#|-00000--00000-00000-00000-00000--|


D#|-----------------|
A#|-----------------|
F#|-----------------|
C#|-----------------|
G#|------12>>>>>>>--|
C#|-000-------------|

==============================================================================


(1:01-1:22)
D#|---------------------------------|
A#|---------------------------------|
F#|---------------------------------|
C#|---------------------------------| (X3)
G#|---------------------------------|
C#|-00000--00000-00000-00000-00000--|

                                    NOW!
                             NOW LET THEM!
                             NOW LET THEM TREMBLE!
D#|---------------------------------------------|
A#|---------------------------------------------|
F#|---------------------------------------------|
C#|---------------------------------------------| 
G#|--------------------------0~~~~~~~~~~~~~~~~--|
C#|-00000--00000-00000-00000-0~~~~~~~~~~~~~~~~--|
					
Comments