All That Remains - For Salvation Chords & Tabs

 

For Salvation Chords & Tabs

All That Remains Chords & Tabs

Version: 1 Type: Tab 0 ratings
1 star 2 stars 3 stars 4 stars 5 stars
comments

For Salvation Tab

   
-------------------------------------------------------------------------------
			     For Salvation - All That Remains
-------------------------------------------------------------------------------
Tabbed by: metallislave
Email: jenky_fats@hotmail.com

This is just one of the guitars.  I didn't tab the solo because I'm not God.
I saw Oli perform the solo live and it was insane. This is my first tab ever
so go easy when you rate it.

Tuning: D Standard

e|---------------------------------------------------------------------------|
B|---------------------------------------------------------------------------|
G|---------------------------------------------------------------------------|
D|--------9---------10-------------------------------------------------------|\
A|-------7-7-------8--8-8-10-8-5-5/7-----------------------------------------| \
E|-000-0-----000-0-------------------0-0-0-0-7-8-10-0-0-0-000-3-7------------|  \
									         2x
e|---------------------------------------------------------------------------|  / 
B|---------------------------------------------------------------------------| /
G|---------------------------------------------------------------------------|/
D|--------9---------10-------------------------------------------------------|
A|-------7-7-------8--8-8-10-8-5-5/7--------------------------5--------------|
E|-000-0-----000-0-------------------0-0-0-0-7-8-10-0-0-0-000-3--------------|

e|---------------------------------------------------------------------------|
B|---------------------------------------------------------------------------|
G|---------------------------------------------------------------------------|
D|---------------------------------------------------------------------------| 1x
A|---------------------------------------------------------------------------|
E|-0-0-0--0-0-0--0-0-0-0-0-0-0--0-0-0--/12\----------------------------------|
[ Tab from: http://www.guitartabs.cc/tabs/a/all_that_remains/for_salvation_tab.html ]
e|---------------------------------------------------------------------------|
B|---------------------------------------------------------------------------|
G|---------------------------------------------------------------------------|
D|--------9---------10------------------5---------4----4-5/7-----------------| 4x
A|-------7-7-------8--8----------------3-3-------2-2---2-3/5-----------------|
E|-000-0-----000-0------0-0-0-0-0-0-0------0-0-0-----0-----------------------|
                                  
e|---------------------------------------------------------------------------|
B|---------------------------------------------------------------------------|
G|--------------------------------------------4------------------------------|
D|--------5-4--4---------5-4---4---------5-4-5-5------5555544444-------------| 2x
A|-7-7-7-7----5--7-7-7-7----5-7--7-7-7-7---------33333----------55555--------|
E|--0-0-0----7----0-0-0-----------0-0-0--------------------------------------|
 
e|---------------------------------------------------------------------------|
B|---------------------------------------------------------------------------|
G|---------------------------------------------------------------------------|
D|-5-5-5-5-5-5---4-4-4-4-4-4-------------------------5-4---4-----------------| 2x
A|--7-7-7-7-7-7---5-5-5-5-5-5--5-5-5-5-5-5---7-7-7------7-5------------------|
E|------------------------------7-7-7-7-7-7---8-8-8------7-------------------|
                                                
e|---------------------------------------------------------------------------|
B|---------------------------------------------------------------------------|
G|---------------------------------------------------------------------------|
D|--------9---------10-------------------------------------------------------|\
A|-------7-7-------8--8-8-10-8-5-5/7-----------------------------------------| \
E|-000-0-----000-0-------------------0-0-0-0-7-8-10-0-0-0-000-3-7------------|  \
           								         2x
e|---------------------------------------------------------------------------|  /
B|---------------------------------------------------------------------------| /
G|---------------------------------------------------------------------------|/
D|--------9---------10-------------------------------------------------------|
A|-------7-7-------8--8-8-10-8-5-5/7--------------------------5--------------|
E|-000-0-----000-0-------------------0-0-0-0-7-8-10-0-0-0-000-3--------------|

e|---------------------------------------------------------------------------|
B|---------------------------------------------------------------------------|
G|---------------------------------------------------------------------------|
D|--------9---------10------------------5---------4----4-5/7-----------------| 4x
A|-------7-7-------8--8----------------3-3-------2-2---2-3/5-----------------|
E|-000-0-----000-0------0-0-0-0-0-0-0------0-0-0-----0-----------------------|

e|---------------------------------------------------------------------------|
B|---------------------------------------------------------------------------|
G|--------------------------------------------4------------------------------|
D|--------5-4--4---------5-4---4---------5-4-5-5------5555544444-------------| 2x
A|-7-7-7-7----5--7-7-7-7----5-7--7-7-7-7---------33333----------55555--------|
E|--0-0-0----7----0-0-0-----------0-0-0--------------------------------------|
 
e|---------------------------------------------------------------------------|
B|---------------------------------------------------------------------------|
G|---------------------------------------------------------------------------|
D|-5-5-5-5-5-5---4-4-4-4-4-4-------------------------5-4---4-----------------| 4x
A|--7-7-7-7-7-7---5-5-5-5-5-5--5-5-5-5-5-5---7-7-7------7-5------------------|
E|------------------------------7-7-7-7-7-7---8-8-8------7-------------------|

e|---------------------------------------------------------------------------|
B|---------------------------------------------------------------------------|
G|---------------------------------------------------------------------------|
D|-----5-5------4-4-----------------------------5-4--------------------------| 2x
A|------7-7------5-5-------------5-5------7-7------7-5-----------------------|
E|-000------000------000-000-000--7-7-000--8-8-------------------------------|

e|---------------------------------------------------------------------------|
B|---------------------------------------------------------------------------|
G|-------4-------------------------------------------------------------------|
D|-----5--5-----4-7-4---------------4--------5---5-4-------------------------| 2x
A|------7--------5----------------5--5-----7--7-----7-5----------------------|
E|-000------000-------000-000-000--7---000--8--------------------------------|

e|---------------------------------------------------------------------------|
B|---------------------------------------------------------------------------|
G|---------------------------------------------------------------------------|
D|---------------------------------------------------------------------------| 1x
A|---------------------------------------------------------------------------|
E|-0-0-0--0-0-0--0-0-0-0-0-0-0--0-0-0--0-0-0--0-0-0--0-0-0-0-0-0-0--0-0-0-/12\-|

e|---------------------------------------------------------------------------|
B|---------------------------------------------------------------------------|
G|---------------------------------------------------------------------------|
D|--------9---------10------------------5---------4----4-5/7-----------------| 1x
A|-------7-7-------8--8----------------3-3-------2-2---2-3/5-----------------|
E|-000-0-----000-0------0-0-0-0-0-0-0------0-0-0-----0-----------------------|

e|---------------------------------------------------------------------------|
B|---------------------------------------------------------------------------|
G|---------------------------------------------------------------------------|
D|--------9---------10------------------5------------------------------------|
A|-------7-7-------8--8----------------3-3-----------------------------------|
E|-000-0-----000-0------0-0-0-0-0-0-0------0-0-0-----------------------------|

| /  slide up
| \  slide down
| h  hammer-on
| p  pull-off
| ~  vibrato
| +  harmonic
| x  Mute note
===============================================================================
Comments