All That Remains - Focus Shall Not Fail Chords & Tabs

 

Focus Shall Not Fail Chords & Tabs

All That Remains Chords & Tabs

Version: 1 Type: Tab 0 ratings
1 star 2 stars 3 stars 4 stars 5 stars
comments

Focus Shall Not Fail Tab

   
-------------------------------------------------------------------------------
	         Focus Shall Not Fail - All That Remains
-------------------------------------------------------------------------------
Tabbed by: metallislave	
Email: jenky_fats@hotmail.com

Once again, just one of the guitars. (Please rate)
Tuning: D Standard

e|---------------------------------------------------------------------------|
B|---------------------------------------------------------------------------|
G|-9~----------------------------------5~------------------------------------|
D|-9~---10~---7~---2~--------------2---5~-------------------0------9-9-------| 1x
A|-7~---10~---5~---0~------------2-----3~---3-5-3-2-------2------9-----9----9|
E|-------8~---5~---0~---0000-0-0--------------------5-3-2------7---------11--|

e|---------------------------------------------------------------------------|
B|---------------------------------------------------------------------------|
G|---------------------------------------------------------------------------|
D|-----------------7---------------------------------------------------------|\
A|-----6-9-7-----9---10-----7h9-----10-7-6-----7-10-9-7-6-9-7-6--------------| \
E|-000-------000--------000-----000--------000-------------------------------|  \
										 2x
e|---------------------------------------------------------------------------|  /
B|---------------------------------------------------------------------------| /
G|---------------------------------------------------------------------------|/
D|-----------------7---------------------------------------------------------|
A|-----6-9-7-----9---10-----7h9-----10-7-6-----6-7-6-----9-7-6---------------|
E|-000-------000--------000-----000--------000-------8-7---------------------|
[ Tab from: http://www.guitartabs.cc/tabs/a/all_that_remains/focus_shall_not_fail_tab.html ]
e|---------------------------------------------------------------------------|
B|---------------------------------------------------------------------------|
G|---------------------------------------------------------------------------|
D|---------------------------------------------------------------------------|\
A|-------------------------------------------7-10-9-7-6-9-7-6----------------| \
E|-000-000-000-0-000-000-000-0-000-000-000-0---------------------------------|  \
										 2x
e|---------------------------------------------------------------------------|  /
B|---------------------------------------------------------------------------| /
G|---------------------------------------------------------------------------|/
D|---------------------------------------------------------------------------|
A|---------------------------------------------6-7-6-----9-7-6---------------|
E|-000-000-000-0-000-000-000-000-000-000-000-0-------8-7---------------------|

e|---------------------------------------------------------------------------|
B|---------------------------------------------------------------------------|
G|---------------------------------------------------------------------------|
D|-----------------7---------------------------------------------------------|\
A|-----6-9-7-----9---10-----7h9-----10-7-6-----7-10-9-7-6-9-7-6--------------| \
E|-000-------000--------000-----000--------000-------------------------------|  \
										 2x
e|---------------------------------------------------------------------------|  /
B|---------------------------------------------------------------------------| /
G|---------------------------------------------------------------------------|/
D|-----------------7---------------------------------------------------------|
A|-----6-9-7-----9---10-----7h9-----10-7-6-----6-7-6-----9-7-6---------------|
E|-000-------000--------000-----000--------000-------8-7---------------------|

e|--------|
B|--------|
G|--------|
D|-2~-----|
A|-2~-----|
E|-0~-----|


| /  slide up
| \  slide down
| h  hammer-on
| p  pull-off
| ~  vibrato
| +  harmonic
| x  Mute note
===============================================================================
Comments