All That Remains - Deepest Grey Chords & Tabs

 

Deepest Grey Chords & Tabs

All That Remains Chords & Tabs

Version: 2 Type: Tab

Deepest Grey Tab

   
	             Deepest Grey Solo - All That Remains

Tabbed by: Chris Lonski
Email:

Oli tabbed this out for a friend during a lesson on the road and i thought id tab it
out, this one isnt too difficult and kind fun. also once i find it Oli tabbed out the
for salvation solo for me which is prety crazy and ill put that up if i can find the tab.

Tuning:

e|---------------------14----15/19\15----------12---15-17-19-14-------------|
B|---------17-12----12----12----------17------------------------------------|
G|-15^full-------15----------------------16/12------12-14-16-11-------------|
D|--------------------------------------------------------------------------|
A|--------------------------------------------------------------------------|
E|--------------------------------------------------------------------------|
[ Tab from: http://www.guitartabs.cc/tabs/a/all_that_remains/deepest_grey_tab_ver_2.html ]
e|--------------------------------------------------------------------------|
B|-12-13-12-10-12-13-12-10--------------------------------------------------|
G|-------------------------10---16-p9h11h12p11p9--17-p9h11h12p11p9----------|
D|--------------------------------------------------------------------------|
A|--------------------------------------------------------------------------|
E|--------------------------------------------------------------------------|
                                 T                 T
e|------------------------------------15-------15-19--14----------17--------|
B|--------------------17----------19--------17-----------15----15-----------|
G|-19-p9h11h12p11p9------------16--------16-----------------14--------------|
D|-----------------------14-17----------------------------------------------|
A|--------------------------------------------------------------------------|
E|--------------------------------------------------------------------------|
   T
e|-13--------------------------------------------------12-13-16--18-16-13-12-|
B|-------13-17--------------------------------11-13-16-----------------------|
G|----16-------------14-16-------16----16br----------------------------------|
D|-------------14-15---------------------------------------------------------|
A|-------------------------14~~~----14---------------------------------------|
E|---------------------------------------------------------------------------|
                                                                 T
e|----------------------------12--------------------------------------------|
B|-13-12---8^---10^-----13-------------15------------16/17------------------|
G|-------------------10----10----10/12---------14---------------------------|
D|------------------------------------------------15------------------------|
A|----------------------------------------12~~------------------------------|
E|--------------------------------------------------------------------------|
          full  full
e|-14p11--------------------------19-15-18-17-------------------------------|
B|------12------------------------------------19-16-18~~~~------------------|
G|--------12---------11-12-16~~~--------------------------------------------|
D|----------13-----13-------------------------------------------------------|
A|------------14-11---------------------------------------------------------|
E|--------------------------------------------------------------------------|


| /  slide up
| \  slide down
| h  hammer-on
| p  pull-off
| ~  vibrato
| +  harmonic
| x  Mute note
===============================================================================