All Systems Go - Tell Vicki Chords & Tabs

 

Tell Vicki Chords & Tabs

All Systems Go Chords & Tabs

Version: 2 Type: Tab 0 ratings
1 star 2 stars 3 stars 4 stars 5 stars
comments

Tell Vicki Tab

really cool song

tuning-standard-EADGBe

^=bend and bend back

Intro(guitar 1)

1-------------------------------|
2-2---2---2-2--2----------------|
3---4---2--4-4---2--------------|
4-------------------------------|
5-------------------------------|
6-------------------------------|

intro guitar 2

1-------------------------------|
2-------------------------------|
3-------------------------------| play each chord 16x
4-7--5--4--3--------------------|
5-7--5--4--3--------------------|
6-5--3--2--1--------------------|

verse

1---5-----5----5---0-0----------|
2---5-----5----5---7/5----------|
3-------------------------------|
4-------------------------------|
5-00--0-44-4-----22-------------|
6------------22-2---------------|

pre-chorus
[ Tab from: http://www.guitartabs.cc/tabs/a/all_systems_go/tell_vicki_tab_ver_2.html ]
1-------------------------------|
2-------------------------------|
3-----7-------------------------| 3x
4-2---7-------------------------|
5-2---5-------------------------|
6-0-----------------------------|

chorus

1----------------}----------------------------|
2----------------}----17^17-14-17-17^17-14-17-|
3----77----------}----44444444-77777777-------| i was kinda lazy there so i
4-77-77-22222222-}-x3-44444444-77777777-------| put the 2 guitar parts togethe
5-77-55-22222222-}----22222222-55555555-------| togeter at the end. i think u
6-55----00000000-}----------------------------| can tell which is which


solo(guitar 2 plays intro)

1-----------------------12^--12^------|
2-10^use some fx-----------10---10----|
3----and stuff for 6------------------|
4----bars then.........---------------|
5-------------------------------------|
6-------------------------------------|

so just put the parts together and thats pretty much it, im not sure if its perfect but
it works for me, for any questions, e-mail me at horny_devil_183@hotmail.com
Comments