All Star United - La La Land Chords & Tabs

 

La La Land Chords & Tabs

All Star United Chords & Tabs

Version: 1 Type: Bass Tab 0 ratings
1 star 2 stars 3 stars 4 stars 5 stars
comments

La La Land Bass Tab

La La Land
by All Star United
from album "All Star United"
Original song (c) 1997 Bridge Building Music, River Oaks Music/ All Rights Bug Music (BMI)

Verse:
D-0-0-0-0-0-0-0-0-0-0-0-0-0-0-0-0--------------------------------
A---------------------------------2-2-2-2-2-2-2-2-3-3-3-3-3-3-3-3
E----------------------------------------------------------------

D---------------------------------0-0-0-0-0-0-0-0-0-0-0-0-0-0-0-0|
A----------------------------------------------------------------|
E-3-3-3-3-3-3-3-3-3-3-3-3-3-3-3-3--------------------------------|
[ Tab from: http://www.guitartabs.cc/tabs/a/all_star_united/la_la_land_btab.html ]
Chorus:
D---------------------------------|0-0-0-0-0----------------------
A-----------------1-1-1-1-1-1-1-1-|----------4-3-2--2-2-2-2-2-2-2-
E-3-3-3-3-3-3-3-3-----------------|-------------------------------

                               2x
D--------------------------------|-0-0-0-0-0-0-0-0-0-0-0-0-0-0-0-0|
A-----------------0-0-0-0-0-0-0-0|--------------------------------|
E-3-3-3-3-3-3-3-3----------------|--------------------------------|

NOTE: Repeat the middle section of the chorus, it should be played
twice.  Listen to the song, and it should make more sense.
Problems?  Contact bass4jesus@aol.com!

Comments