All Shall Perish - Laid To Rest Chords & Tabs

 

Laid To Rest Chords & Tabs

All Shall Perish Chords & Tabs

Version: 1 Type: Tab 0 ratings
1 star 2 stars 3 stars 4 stars 5 stars
comments

Laid To Rest Tab

   
Band: All Shall Perish
Album: Hate, Malice, Revenge
Song: Laid to Rest
Nuclear Blast Records
Transcribed by: B
E-mail: GodMutilator@yahoo.com
Check out AllShallPerish.com for news on the underground
death metal band from California.

Tuning: B Standard

G1 Tremolo Picking
----------------------------------------|
----------------------------------------|
----------------------------------------|
----------------------------------Trill-|
---7-10-7-------------7-10-7-12-10-9h10-|
-0--------8-11-8-11-0-------------------|

Main Riff Tremolo
----------------------------------------|
----------------------------------------|
----------------------------------------|
--------9------------------9-10-9-----9-|
---7-10---10-7-10-7---7-10---------10---|
-0------------------8-------------------|cont...

Tremolo
--------------------------------------|
--------------------------------------|
------------------hit 6 10 times------|
--------9------------------------10---|
---9-10---10-7-10-7-6----------9----9-|
-5------------------------------------|

Slow Riff  Listen to song for timining
------------------------------------------|
------------------------------------------|
------------------------------------------|
-2----5-----2----9---8-2----5-----2-------|
-2--7---3-6-2--7---6---2--7---3-6-2---2-2-|
-0----------0----------0----------0---0-0-|
                                      . .

Guitars switch these riffs
------------------------------------------|
------------------------------------------|
------------------------------------------|
-2----5-----2----9---8-2----5-----2-------|
-2--7---3-6-2--7---6---2--7---3-6-2---2-2-|
-0----------0----------0----------0---0-0-|
                                      . .

---------------------------------|
---------------------------------|
---------------------------------|
---------------------------------|
-2-2---2-222-222-5--8--5-6--5----|
-0-0---0-000-000-3--6--3-4--3-4--|
 . .   . ... ... .  .  . .  . Ph

---------------------------------|
---------------------------------|
---------------------------------|
---------------------------------|
-2-2---2-222-222-3--6--3-4--3-2--|
-0-0---0-000-000-1--4--1-2--1----|
 . .   . ... ... .  .  . .  . Ph

Tremolo
-------------------|
-------------------|
-------------------|
-------------------|
-5-7-8----7-8-10---|
-------------------|

----------------|
----------------|
----------------|
----------------|Double bass drum...
-2-2---222-222--|
-0-0---000-000--|
 . .   ... ...

---------------------------------|
---------------------------------|
---------------------------------|
---------------------------------|
-2-2---222-222-2-3--6--3-4--3--2-|
-0-0---000-000-0-1--4--1-2--1--0-|
 . .   ... ... . .  .  . .  .  .

----------------------------|g
----------------------------|u
----------------------------|i
----------------------------|t
-2-2---222-222-2---2--2--2--|a
-0-0---000-000-0---0--0--0--|r
 . .   ... ... .   .  .  .

----------------------------|o
----------------------------|n
----------------------------|e
----------------------------|
-2-2---222-222-2----2-2-----|
-0-0---000-000-0----0-0-----|
 . .   ... ... .    . .
[ Tab from: http://www.guitartabs.cc/tabs/a/all_shall_perish/laid_to_rest_tab.html ]
------------------------------------------------------|g
------------------------------------------------------|u
------------------------------------------------------|i
--------9------------------9-10-9----9----------------|t The second time you do this riff,
---7-10-----77-10-7---7-10--------10---a do 10-9-10-9-| instead of
10-9----9- --0--------0---------0---------------------|r
-----10-----------------------------------------------|
 . . .    . .. .    . . .         .                                   .

----------------------------------------|t
----------------------------------------|w
----------------------------------------|o
--------9-----------------------10------|
---7-10-----77-10-7-6-6-6-6-6-9----9----|
-0--------0-----------------------------|
 . . .    . .. .  . . . . . .

Next, Trmolo it

G1
--------------|
--------------|
--------------|
--------------|
-7---10---6---|
--------------|

G2         not sure about these
-------------|
-------------|
-9---8---3---|
-------------|
-------------|
-------------|

G1
---------------------------------------|
---------------------------------------|Sometimes they change it up
---------------------------------------|a little, just listen.
--------9------------------9-10-9----9-|
---9-10---10-9-10-9---9-10--------10---|
-0------------------8------------------|

-------------------------------|
-------------------------------|
-------------------------------|
-------------------------------|
-------7-9-7---7-------6-9~----|
-5-7-8-------8---7~------------|

G2
-----------------|
-----------------|
-----------------|
-2---10---7---9--|
-2---10---7---9--|
-0---8----5---7--|

Then
------------------------------------------------------------|
------------------------------------------------------------|
------------------------------------------------------------|
------------------------------------------------------------|
-2-2-2-2-2-2-2-2-10-10-10-10-10-10-10-10-7-7-7-7-7-7-7-7-9~-|
-0-0-0-0-0-0-0-0-8--8--8--8--8--8--8--8--5-5-5-5-5-5-5-5-7~-|

Tremolo
-----------------------------|
-----------------------------|
-----------------------------|
-----------------------------|
---9-10---9-10---9-10---10-9-|
-0------8------5------7------|

-----------------|
-----------------|
-----------------|
-----------------|
-2-4-5-7-5-4-5-4-|
-0-2-3-5-3-2-3-2-|
 . . . . . . . .

What you do is tap the 12, 11, and 8th frets with your pick or finger while your other 
sits on the 9, 8, and 5 frets. This takes practice for good timing, but pretty easy once learned.
----------------------------------------------------------|
----------------------------------------------------------|
-12-9-12-9-12-9-12-9-12-9-12-9-11-8-11-8-11-8-8-5-8-5-8-5-|
----------------------------------------------------------|
----------------------------------------------------------|
----------------------------------------------------------|

Same on this shit.
-------------------------------------------------------|
-------------------------------------------------------|
-------------------------------------------------------|
-------------------------------------------------------|
-10-7-10-7-10-7-10-7-10-7-10-7-9-6-9-6-9-6-6-3-6-3-6-3-|
-------------------------------------------------------|

Sorry for the delay on finishing it peeps, any questions or comments send via e-mail, if 
got shit to talk fuck off and dont waste either one of our time.    Finished this tab 
for you xboddahx_6122.
Comments