All Out War - Two Thousand Years Chords & Tabs

 

Two Thousand Years Chords & Tabs

All Out War Chords & Tabs

Version: 1 Type: Tab 0 ratings
1 star 2 stars 3 stars 4 stars 5 stars
comments

Two Thousand Years Tab

e----------------------------------------------------------|
B----------------------------------------------------------|
G----------------------------------------------------------|
D-----2---1---3---2---2---1---3---2---2--------------------|
A-----2---1---3---2---2---1---3---2---2--------------------|
E-----------------0---------------0------------------------|

e------------------------------------------------------------------|
B------------------------------------------------------------------|
G------------------------------------------------------------------|
D------------------------------------------------------------------|
A----------7-----8-----8---7------------7--------8-------10---8----|
E---000------0-----0-----------000---------0-------0---------------|


e---------------------------------------------------|
B---------------------------------------------------|
G---------------------------------------------------|
D--------------------3------------------------------|
A--------------------3------------8--7--------------|
E--0000000000000000--1---000007---------8-----------|


e------------------------------------------------------|
B------------------------------------------------------|
G------------------------------------------------------|
D-------------------6--5-------------10---9---7----6---|
A-------------------6--5----8---7----------------------|
E--000000000000000--4--3-------------------------------|

e---------------------------------------------------|
B---------------------------------------------------|
G---------------------------------------------------|
D---------------------------------------------------|
A------------------7---9---6--7--5---7--4~~~--------|
E--000000000000-------------------------------------|

e--------------------------------------------------------|
B--------------------------------------------------------|
G--------------------------------------------------------|
D----9----10------------------2---3----6----5------------|
A----7----8----888877776666---2---3----6----5------------|
E----7----8-------------------0---1----4----3------------|

e-----------------------------------------------------------------|
B-----------------------------------------------------------------|
G-----------------------------------------------------------------|
D---2-------3---------2-------3-----------------------------------|
A---2-------1---------2-------3-----------------------------------|
E---0-------1---------0-------1-----------------------------------|
[ Tab from: http://www.guitartabs.cc/tabs/a/all_out_war/two_thousand_years_tab.html ]
e-----------------------------------------------------------------|
B-----------------------------------------------------------------|
G-----------------------------------------------------------------|
D-----------------------------------------------------------------|
A-------------------------------------888877776666777-------------|
E---000--00---000---00----000----00-------------------------------|

e-----------------------------------------------------------------|
B-----------------------------------------------------------------|
G-----------------------------------------------------------------|
D---------------------------------3----6----5---------------------|
A---------------------------------3----6----5---------------------|
E---000---00--000--00---000--00---1----4----3---------------------|

e-----------------------------------------------------------------|
B-----------------------------------------------------------------|
G-----------------------------------------------------------------|
D---------------------------5--4--3--4---3--2--1--2---------------|
A---------------------------5--4--3--4---3--2--1--2---------------|
E---000--000---000---000----3--2--1--2----------------------------|

e-----------------------------------------------------------------|
B-----------------------------------------------------------------|
G-----------------------------------------------------------------|
D-------------------------5---4---3---4----3--2--1----------------|
A-------------------------5---4---3---4----3--2--1----------------|
E----000--000--000--000---3---2---1---2---------------------------|

e-----------------------------------------------------------------|
B-----------------------------------------------------------------|
G-----------------------------------------------------------------|
D---2--2-------2--2-------2--2-----2--2---------------------------|
A---2--2-------2--2-------2--2-----2--2---------------------------|
E---0--0-------0--0-------0--0-----0--0---------------------------|

e-------------------------------------------------------------------|
B-------------------------------------------------------------------|
G-------------------------------------------------------------------|
D---------------------------------------------------9---8-----------|
A-----------------------------------------8---7---------------------|
E---00000------00000-----00000--------------------------------------|

e-------------------------------------------------------------------|
B-------------------------------------------------------------------|
G-------------------------------------------------------------------|
D------------------------------------------------7------------------|
A---------------------------------------7---8-----------------------|
E----00000-----00000----00000---------------------------------------|

e-----------------------------------------------------------------|
B-----------------------------------------------------------------|
G-----------------------------------------------------------------|
D-----------------------------------------------------------------|
A------------------------------7--8---7--8--7----5--7--8---7------|
E----00000000000000000--------------------------------------------|
Comments