All But The Bird - No Way To Live Life Lead Chords & Tabs

 

No Way To Live Life Lead Chords & Tabs

All But The Bird Chords & Tabs

Version: 1 Type: Tab 0 ratings
1 star 2 stars 3 stars 4 stars 5 stars
comments

No Way To Live Life Lead Tab

e|-------7-----------7---------------|
b|----9----9-------9---8-------------|
g|--9------------9-------------------|
d|-----------------------------------|
a|-----------------------------------|
E|-----------------------------------|
[ Tab from: http://www.guitartabs.cc/tabs/a/all_but_the_bird/no_way_to_live_life_lead_tab.html ]
e|-------5-----------5---------------|
b|----7----7-------7---6-------------|
g|--7------------7-------------------|
d|-----------------------------------|
a|-----------------------------------|
E|-----------------------------------|


Repeat for every chorus

~AllButTheBird
Comments