All-american Rejects - Your Star Chords & Tabs

 

Your Star Chords & Tabs

All-american Rejects Chords & Tabs

Version: 2 Type: Tab 0 ratings
1 star 2 stars 3 stars 4 stars 5 stars
comments

Your Star Tab

   
-------------------------------------------------------------------------------
			     Your Star - All-American Rejects
-------------------------------------------------------------------------------

Tabbed by:Loudboy	
Email: john@rapid-design.net
Website: www.rapid-design.net
Comments: I congradulate myself for my 10th tab here lol!

Tuning:Standard (E-A-D-G-B-E)

Intro
e|---------------------------------------------------------------------------|
B|---------------------------------------------------------------------------|
G|-7-7-7-7----------------------------7-7-7-7--------------------------------|
D|-7-7-7-7--7-7-7-7--2-2-2-2--5-5-5-5-7-7-7-7--7-7-7-7--2-2-2-2--5-5-5-5-----|
A|-5-5-5-5--7-7-7-7--2-2-2-2--5-5-5-5-5-5-5-5--7-7-7-7--2-2-2-2--5-5-5-5-----|
E|----------5-5-5-5--0-0-0-0--3-3-3-3----------5-5-5-5--0-0-0-0--3-3-3-3-----|

Verse (Piano part for guitar :) I set it up sorta different but sounds kewl on
an electric lol.
e|---------------------------------------------------------------------------|
B|---------------------------------------------------------------------------|
G|---------------------------------------------------------------------------|
D|-77-77777777-77777777-44444444----------77777777-77777777-44444444---------|
A|-55-55555555-44444444-22222222-55555555-55555555-44444444-22222222-55555555|
E|-------------------------------33333333----------------------------33333333|
PM    ******** ******** ******** ******** ******** ******** ******** ********

Then Two Guitars
Guitar One
e|---------------------------------------------------------------------------|
B|---------------------------------------------------------------------------|
G|---------------------------------------------------------------------------|
D|-77777777-99999999------------------77777777-99999999----------------------|
A|-55555555-77777777-5555555555555555-55555555-77777777-5555555555555555-----|
E|-------------------3333333333333333-------------------3333333333333333-----|
PM ******** ******** **************** ******** ******** ****************
Guitar Two
e|---------------------------------------------------------------------------|
B|---------------------------------------------------------------------------|
G|-7-7-7-7----------------------------7-7-7-7--------------------------------|
D|-7-7-7-7--7-7-7-7--5-5-5-5-5-5-5-5--7-7-7-7--7-7-7-7--5-5-5-5-5-5-5-5------|
A|-5-5-5-5--7-7-7-7--5-5-5-5-5-5-5-5--5-5-5-5--7-7-7-7--5-5-5-5-5-5-5-5------|
E|----------5-5-5-5--3-3-3-3-3-3-3-3-----------5-5-5-5--3-3-3-3-3-3-3-3------|

Chorus
Guitar One
e|---------------------------------------------------------------------------|
B|----------------------------------------------------------------------x2---|
G|---------------------------------------------------------------------------|
D|-7777777777777777----------------------------------------------------------|
A|-5555555555555555-7777777777777777-9999999999999999-5555555555555555-------|
E|------------------5555555555555555-7777777777777777-3333333333333333-------|
Guitar Two
e|---------------------------------------------------------------------------|
B|----------------------------------------------------------------------x2---|
G|---------------------------------------------------------------------------|
D|---7-5-4----7-5-4---7-5-4----7-5-4---7-5-4----7-5-4---7-5-4----7-5-4-------|
A|-55-------55---------------------------------------------------------------|
E|------------------55-------55------77-------77------33-------33------------|

Then Play the Intro Again

Verse 2
e|---------------------------------------------------------------------------|
B|---------------------------------------------------------------------------|
G|---------------------------------------------------------------------------|
D|----77777777-77777777-44444444----------77777777-77777777-44444444---------|
A|----55555555-44444444-22222222-55555555-55555555-44444444-22222222-55555555|
E|-------------------------------33333333----------------------------33333333|

Then Two Guitars
Guitar One
e|---------------------------------------------------------------------------|
B|---------------------------------------------------------------------------|
G|---------------------------------------------------------------------------|
D|-77777777-99999999------------------77777777-99999999----------------------|
A|-55555555-77777777-5555555555555555-55555555-77777777-5555555555555555-----|
E|-------------------3333333333333333-------------------3333333333333333-----|
PM ******** ******** **************** ******** ******** ****************
Guitar Two
e|---------------------------------------------------------------------------|
B|---------------------------------------------------------------------------|
G|-7-7-7-7----------------------------7-7-7-7--------------------------------|
D|-7-7-7-7--7-7-7-7--5-5-5-5-5-5-5-5--7-7-7-7--7-7-7-7--5-5-5-5-5-5-5-5------|
A|-5-5-5-5--7-7-7-7--5-5-5-5-5-5-5-5--5-5-5-5--7-7-7-7--5-5-5-5-5-5-5-5------|
E|----------5-5-5-5--3-3-3-3-3-3-3-3-----------5-5-5-5--3-3-3-3-3-3-3-3------|

Play the chorus x2.

Solo w/ Digitech Whammy pedal set to go 1 oct down (W means whammy level up "^"
or down "v")
e|---------------------------------------------------------------------------|
B|---------------------------------------------------------------------------|
G|-----------------9------11------4-4444-2-0-2-0-0----------9------11--------|
D|------------------------------------------------4-0------------------------|
A|----------5----------------------------------------------------------------|
E|-0-------------------------------------------------------------------------|
W| v slowly ^ fast ^ fast ^ fast		   V slowly ^ fast ^ fast
[ Tab from: http://www.guitartabs.cc/tabs/a/all_american_rejects/your_star_tab_ver_2.html ]
e|---------------------------------------------------------------------------|
B|---------------------------------------------------------------------------|
G|-14-14b-16-14--------------------------------------------------------------|
D|---------------------------------------------------------------------------|
A|---------------------------------------------------------------------------|
E|---------------------------------------------------------------------------|

Rest of Interlude
e|---------------------------------------------------------------------------|
B|---------------------------------------------------------------------------|
G|---------------------------------------------------------------------------|
D|-7777777777777-----------------7777777777777777----------------------------|
A|-5555555555555-555555555555555-5555555555555555-777777777777777------------|
E|---------------333333333333333------------------555555555555555------------|

e|---------------------------------------------------------------------------|
B|---------------------------------------------------------------------------|
G|---------------------------------------------------------------------------|
D|-7777777777777-------------------------------------------------------------|
A|-5555555555555-555555555555555-7777777777777777-12-----let-ring------------|
E|---------------333333333333333-5555555555555555-10-------------------------|

Then Two Guitar Part again
Guitar One
e|---------------------------------------------------------------------------|
B|---5-77----5-77----5-77--8-7-----------------------------------------------|
G|-7-------7-------7-----------7---------------------------------------------|
D|---------------------------------------------------------------------------|
A|---------------------------------------------------------------------------|
E|---------------------------------------------------------------------------|
Guitar Two
e|---------------------------------------------------------------------------|
B|---------------------------------------------------------------------------|
G|---------------------------------------------------------------------------|
D|-7-------------------------------------------------------------------------|
A|-5-------7-------2-------5-------------------------------------------------|
E|---------5-------0-------3-------------------------------------------------|

Three Parts: sorta hard to write out and make sense but i tried :)
Guitar One (more spread out, cause second guitar is hella fast lol)
e|---------------------------------------------------------------------------|
B|----------------5---------7-------7------------------------5-------------7-|
G|-7------------------------------------------7------------------------------|
D|---------------------------------------------------------------------------|
A|---------------------------------------------------------------------------|
E|---------------------------------------------------------------------------|
Guitar Two
e|---------------------------------------------------------------------------|
B|---------------------------------------------------------------------------|
G|-11-9----11-9----11-9----11-9-------9-11-9--11-9----11-9----11-9----11-9---|
D|------12------12------12------12-12--------------12------12------12------12|
A|---------------------------------------------------------------------------|
E|---------------------------------------------------------------------------|
Guitar Three
e|---------------------------------------------------------------------------|
B|---------------------------------------------------------------------------|
G|---------------------------------------------------------------------------|
D|-7-------------------------------------------------------------------------|
A|-5------------------------------------------7------------------------------|
E|--------------------------------------------5------------------------------|
Guitar One
e|---------------------------------------------------------------------------|
B|-7-------------------------5--------7-------7----------8---------------7---|
G|------------7--------------------------------------------------------------|
D|---------------------------------------------------------------------------|
A|---------------------------------------------------------------------------|
E|---------------------------------------------------------------------------|
Guitar Two
e|---------------------------------------------------------------------------|
B|---------------------------------------------------------------------------|
G|----9-11-9--11-9----11-9----11-9----11-9-------9-11-9--11-9----11-9----11-9|
D|-12--------------12------12------12------12-12--------------12------12-----|
A|---------------------------------------------------------------------------|
E|---------------------------------------------------------------------------|
Guitar Three
e|---------------------------------------------------------------------------|
B|---------------------------------------------------------------------------|
G|---------------------------------------------------------------------------|
D|---------------------------------------------------------------------------|
A|------------2------------------------------------------5-------------------|
E|------------0------------------------------------------3-------------------|
Guitar One
e|---------------------------------------------------------------------------|
B|---------------------------------------------------------------------------|
G|---------7-----------------------------------------------------------------|
D|---------------------------------------------------------------------------|
A|---------------------------------------------------------------------------|
E|---------------------------------------------------------------------------|
Guitar Two
e|---------------------------------------------------------------------------|
B|---------------------------------------------------------------------------|
G|----11-9------9-11-9-------------------------------------------------------|
D|-12------12-12-------------------------------------------------------------|
A|---------------------------------------------------------------------------|
E|---------------------------------------------------------------------------|

Then play chorus x4


| /  slide up
| \  slide down
| h  hammer-on
| p  pull-off
| ~  vibrato
| +  harmonic
| x  Mute note
===============================================================================
Comments