All-american Rejects - Your Star Chords & Tabs

 

Your Star Chords & Tabs

All-american Rejects Chords & Tabs

Version: 1 Type: Tab 0 ratings
1 star 2 stars 3 stars 4 stars 5 stars
comments

Your Star Tab

  song: your star
artist: the all-american rejects
 album: the all-american rejects

note: first tab ever, don't get mad if any of it sounds funny.

intro
guitar:1
E|--------------------------------------------------------|-------------------
B|--------------------------------------------------------|-------------------
G|----7-----7-----------------4-----4---------------------|-------------------
D|----7-----7-----7-----7-----4-----4-----5-----5---------|2x-----------------
A|----5-----5-----7-----7-----2-----2-----5-----5---------|-------------------
e|----------------5-----5-----------------3-----3---------|-------------------

guitar: 2
E|--------------------------------------------------------|-------------------
B|--------------------------------------------------------|-------------------
G|-------7-----7-----------------4-----4------------------|-------------------
D|-------7-----7-----7-----7-----4-----4-----5-----5------|2x-----------------
A|-------5-----5-----7-----7-----2-----2-----5-----5------|-------------------
e|-------------------5-----5-----------------3-----3------|-------------------
                                                
you can have the intro played by          E|----15-14-----|-------------------
either 1 guitar, or 2, just gotta         B|----------15--|-------------------
change your timing around.                G|--------------|2x---77------------
                                          D|--------------|-----77------------
                                          A|--------------|-----55------------
                                          e|--------------|-------------------

 verse:1
guitar:1
this part sounds like its played by a piano but these are the chords for the guitar.
E|---------------------------------------|------------------------------------
B|---------------------------------------|------------------------------------
G|--77777777-77777777-44444444-----------|-4x---------------------------------
D|--77777777-66666666-44444444-55555555--|------------------------------------
A|--55555555-55555555-22222222-55555555--|------------------------------------
e|-----------------------------33333333--|------------------------------------

jumps in on the last 2 measures
guitar:2 or both guitars
E|----------------------------------------------------------------------------
B|----------------------------------------------------------------------------
G|--7-7-7-7-----------4-4-4-4-----------7-7-7-7-------------------------------
D|--7-7-7-7--7-7-7-7--4-4-4-4--5-5-5-5--7-7-7-7--7-7-7-7--5555555555555555----
A|--5-5-5-5--7-7-7-7--2-2-2-2--5-5-5-5--5-5-5-5--7-7-7-7--5555555555555555----
e|-----------5-5-5-5-----------3-3-3-3-----------5-5-5-5--3333333333333333----

chorus
E|-------------------------------------------------------------------------|
B|-------------------------------------------------------------------------|
G|--7777777777777777--------------------4444444444444444-------------------|2x
D|--7777777777777777--7777777777777777--4444444444444444--5555555555555555-|
A|--5555555555555555--7777777777777777--2222222222222222--5555555555555555-|
e|--------------------5555555555555555--------------------3333333333333333-|
sounds like some other electronic sound in the background

(jumps back to the intro)
 verse:2
guitar:1
E|---------------------------------------|------------------------------------
B|---------------------------------------|------------------------------------
G|--77777777-77777777-44444444-----------|-4x---------------------------------
D|--77777777-66666666-44444444-55555555--|------------------------------------
A|--55555555-55555555-22222222-55555555--|------------------------------------
e|-----------------------------33333333--|------------------------------------
[ Tab from: http://www.guitartabs.cc/tabs/a/all_american_rejects/your_star_tab.html ]
guitar:2
E|---------------------------------------|------------------------------------
B|--8-7-5---5---5---5-8-7-5---5---5------|------------------------------------
G|--------7---7---7---------7---7---7----|2x----------------------------------
D|---------------------------------------|------------------------------------
A|---------------------------------------|------------------------------------
e|---------------------------------------|------------------------------------

jumps in on the last 2 measures
guitar:2 or both guitars
E|----------------------------------------------------------------------------
B|----------------------------------------------------------------------------
G|--7-7-7-7-----------4-4-4-4-----------7-7-7-7-------------------------------
D|--7-7-7-7--7-7-7-7--4-4-4-4--5-5-5-5--7-7-7-7--7-7-7-7--5555555555555555----
A|--5-5-5-5--7-7-7-7--2-2-2-2--5-5-5-5--5-5-5-5--7-7-7-7--5555555555555555----
e|-----------5-5-5-5-----------3-3-3-3-----------5-5-5-5--3333333333333333----

chorus
E|-------------------------------------------------------------------------|--
B|-------------------------------------------------------------------------|--
G|--7777777777777777--------------------4444444444444444-------------------|--
D|--7777777777777777--7777777777777777--4444444444444444--5555555555555555-|2x
A|--5555555555555555--7777777777777777--2222222222222222--5555555555555555-|--
e|--------------------5555555555555555--------------------3333333333333333-|--

solo: don't know it yet. will figure it out later

E|------------------------------------------------------------------|---------
B|------------------------------------------------------------------|---------
G|--4-4-4-4-4-4-4-4-----------------7-7-7-7-7-7-7-7-----------------|---------
D|--4-4-4-4-4-4-4-4-5-5-5-5-5-5-5-5-7-7-7-7-7-7-7-7-7-7-7-7-7-7-7-7-|---------
A|--2-2-2-2-2-2-2-2-5-5-5-5-5-5-5-5-5-5-5-5-5-5-5-5-7-7-7-7-7-7-7-7-|---------
e|------------------3-3-3-3-3-3-3-3-----------------5-5-5-5-5-5-5-5-|---------
    leave     me    be,  now   i'm  free,   love    reflecting   everything
E|------------------------------------------------------------------|---------
B|------------------------------------------------------------------|---------
G|--4-4-4-4-4-4-4-4-----------------7-7-7-7-7-7-7-7-----------------|---------
D|--4-4-4-4-4-4-4-4-5-5-5-5-5-5-5-5-7-7-7-7-7-7-7-7-7---------------|---------
A|--2-2-2-2-2-2-2-2-5-5-5-5-5-5-5-5-5-5-5-5-5-5-5-5-7(ring)---------|---------
e|------------------3-3-3-3-3-3-3-3-----------------5---------------|---------
    you     want    space, i  need  you to help me  see this through
guitar or piano
E|------------------------------------|---------------------------------------
B|----5-7-7----5-7-7----5-7-7--7------|---------------------------------------
G|--7----------------4---------5-7----|2x-------------------------------------
D|--7--------7-------4---------5------|---------------------------------------
A|--5--------7-------2---------3------|---------------------------------------
e|-----------5------------------------|---------------------------------------

2nd measure only
guitar:2
E|---------------------------------------------------|------------------------
B|---------------------------------------------------|------------------------
G|--7-7-7-7-7-7-7-7-7-7-7-7-7-7-7-7-7-7-7-7-7-7-7-7--|------------------------
D|--7-7-7-7-7-7-7-7-7-7-7-7-7-7-7-7-7-7-7-7-7-7-7-7--|------------------------
A|--5-5-5-5-5-5-5-5-5-5-5-5-5-5-5-5-5-5-5-5-5-5-5-5--|------------------------
e|---------------------------------------------------|------------------------

chorus
E|-------------------------------------------------------------------------|--
B|-------------------------------------------------------------------------|--
G|--7777777777777777--------------------4444444444444444-------------------|--
D|--7777777777777777--7777777777777777--4444444444444444--5555555555555555-|2x
A|--5555555555555555--7777777777777777--2222222222222222--5555555555555555-|--
e|--------------------5555555555555555--------------------3333333333333333-|--

tell me what you think, questions, comments, criticism. but if your pissed off.
don't write to me. hahaha

contact: gooboy_53@hotmail.com
Comments