All-american Rejects - Your Star Chords & Tabs

 

Your Star Chords & Tabs

All-american Rejects Chords & Tabs

Version: 1 Type: Bass Tab 0 ratings
1 star 2 stars 3 stars 4 stars 5 stars
comments

Your Star Bass Tab

Intro
G:----------------------------------|
D:----------------------------------|
A:-55555555---------------------235-|x1
E:---------555555550000000033333----|

G:----------------------------------|
D:----------------------------------|
A:-55555555-------------------------|x1
E:---------555555550000000033333333-|

Verse 1
G:------------------------------------------------------------------|
D:------------------------------------------------------------------|
A:-55---------------------------------------------------------------|x1
E:------------------------------------------------------------------|

G:----------------------------------|
D:----------------------------------|
A:-55555555-------------------------|x2
E:---------555555553333333333333333-|

Chorus
G:------------------------------------------------------------------|
D:------------------------------------------------------------------|
A:-5555555555555555----------------2222222222222222-----------------|x2
E:-----------------5555555555555555----------------3333333333333333-|

Pre Verse
G:----------------------------------|
D:----------------------------------|
A:-55555555-------------------------|x2
E:---------555555550000000033333333-|

Verse 2 
G:------------------------------------------------------------------|
D:------------------------------------------------------------------|
A:-55555555---------------------23555555555-------------------------|x1
E:---------555555550000000033333-----------555555550000000033333333-|

G:----------------------------------|
D:----------------------------------|
A:-55555555-------------------------|x2
E:---------555555553333333333333333-|

Repeat:
Chorus

Bridge
G:------------------|
D:------------------|
A:-7~~~----5~-------|x1
E:-------------5~---|
[ Tab from: http://www.guitartabs.cc/tabs/a/all_american_rejects/your_star_btab.html ]
G:------------------------------------------------------------------|
D:------------------------------------------------------------------|
A:-55555555---------------------23555555555-------------------------|x1
E:---------555555550000000033333-----------555555550000000033333333-|

G:------------------------------------------------------------------|
D:------------------------------------7-------7---------------------|
A:---------------------------------555--555555--555-----------------|x1
E:-77777777777777773333333333333333----------------5555555555555555-|

G:------------------------------------------------------------------|
D:------------------------------------------------------------------|
A:------------------------------------------------------------------|x1
E:-7777777777777777333333333333333355555555555555555~~~~~~~---------|

G:------------------------------------------------------------------|
D:------------------------------------------------------------------|
A:-5~~~~~~~------------------------7~~~~~~~-------------------------|x1
E:-----------------5~~~~~~~--------0~~~~~~~--------3~~~~~~~---------|

G:------------------------------------------------------------------|
D:------------------------------------------------------------------|
A:-5-5-5-5-5-5-5-5-----------------7~~~~~~~-------------------------|x1
E:-----------------5-5-5-5-5-5-5-5-0-0-0-0-0-0-0-0-3-3-3-3-3-3-3-3--|

Chorus
G:------------------------------------------------------------------|
D:------------------------------------------------------------------|
A:-5555555555555555----------------2222222222222222-----------------|x3
E:-----------------5555555555555555----------------3333333333333333-|

G:------------------------------------------------------------------|
D:------------------------------------------------------------------|
A:-5555555555555555----------------2222222222222222-----------------|x1
E:-----------------5555555555555555----------------3~~~~~~~---------|
Comments