All-american Rejects - Top Of The World Chords & Tabs

 

Top Of The World Chords & Tabs

All-american Rejects Chords & Tabs

Version: 3 Type: Tab 0 ratings
1 star 2 stars 3 stars 4 stars 5 stars
comments

Top Of The World Tab

   
Tabbed by:manuel
Email:bored5242@aol.com

Tuning:stndard (e b g d a e)

not a very hard solo to play

e|---------------------------------------------------------------------------|
B|---------------------------------------------------------------------------|
G|---------------------------------------------------------------------------|
D|---------------------------------------------------------------------------|
A|---------------------------------------------------------------------------|
E|--7-9-10-9-10-9-7-7--5-7-5--7-9-10-9-10s14-12-10-12-14-14 -----------------|
[ Tab from: http://www.guitartabs.cc/tabs/a/all_american_rejects/top_of_the_world_tab_ver_3.html ]
e|---------------------------------------------------------------------------|
B|---------------------------------------------------------------------------|
G|---------------------------------------------------------------------------|
D|---------------------------------------------------------------------------|
A|---------------------------------------------------------------------------|
E|--7-9-10-9-10s14-12--10-12-14--12--10--9--7-9-7----------------------------|

or you can play it like this

e|---------------------------------------------------------------------------|
B|---------------------------------------------------------------------------|
G|---------------------------------------------------------------------------|
D|---------------------------------------------------------------------------|
A|--2-4-5-4-5-4-2-2--0-2-0--2-4-5-4-5s9-7-5-7-9-9----------------------------|
E|---------------------------------------------------------------------------|

e|---------------------------------------------------------------------------|
B|---------------------------------------------------------------------------|
G|---------------------------------------------------------------------------|
D|---------------------------------------------------------------------------|
A|--2-4-5-4-5s9-7--5-7-9--7--5--4--0-2-0-------------------------------------|
E|---------------------------------------------------------------------------|
Comments