All-american Rejects - Top Of The World Chords & Tabs

 

Top Of The World Chords & Tabs

All-american Rejects Chords & Tabs

Version: 1 Type: Tab 0 ratings
1 star 2 stars 3 stars 4 stars 5 stars
comments

Top Of The World Tab

Song: Top of the world
Artist: All-American Rejects
Album: Move Along
Tabbed by: draino231
Tuning: Standard


Intro (pluck strings..if you know the song you know what im saying) figure out strum on ur own


e|--7-----3----5----2--------------------------------------------------------|
B|--7-----3----5----2--------------------------------------------------------|
G|--7-----4----6----3--------------------------------------------------------|
D|--9-----5----7----4--------------------------------------------------------|
A|--9-----5----7----4--------------------------------------------------------|
E|7-7---3-3--5-5--2-2--------------------------------------------------------|

Verse
(some is palm muted, some isnt..listen to the song)

e|------------------|
B|------------------|
G|-4----------------|
D|-4--5--7--4-------|
A|-2--5--7--4-------|
E|----3--5--2-------| repeat however many times it is

Bridge "don't be so.."

e|------------------|
B|------------------|
G|------------------|
D|---5--7-----------|
A|---5--7-----------|
E|---3--5-----------| x2 end on

2
2
3
4
4
2 pluck thing like the intro..or just

4
4
2 on

other verses

Chorus
[ Tab from: http://www.guitartabs.cc/tabs/a/all_american_rejects/top_of_the_world_tab.html ]
e|------------------|
B|------------------|
G|-4----------------|
D|-4--5--7--4-------|
A|-2--5--7--4-------|
E|----3--5--2-------|

Solo

Guitar 1

e|------------------|
B|------------------|
G|-4----------------|
D|-4--5--7--4-------|
A|-2--5--7--4-------|
E|----3--5--2-------|

Guitar 2
e|---------------------------------------------------------------------------|
B|---------------------------------------------------------------------------|
G|---------------------------------------------------------------------------|
D|---------------------------------------------------------------------------|
A|---------------------------------------9-7-------9-9------------7----------|
E|-7-7-10-10-9-10-9h7-7-5-7-5-10-10-9-10-----10-10-----10-10-9-10---10-9-9---|

(cont)

A|-------9-7-5-4-5-5-4-5---|
E|-10-10-----------------7-|

Bridge 2 "paint yourself a picture"

e|---------------------------|
B|---------------------------|
G|---------------------------|
D|-5--7--9--12--5--7--9------|      ends on          5  7  9
A|-5--7--9--12--5--7--9------|  "and you win"        5  7  9
E|-3--5--7--10--3--5--7------|                       3  5  7

Bridge 1
Chorus acouple times

Thats all folks.
Comments