All-american Rejects - Too Far Gone Chords & Tabs

 

Too Far Gone Chords & Tabs

All-american Rejects Chords & Tabs

Version: 3 Type: Tab 0 ratings
1 star 2 stars 3 stars 4 stars 5 stars
comments

Too Far Gone Tab

   
this isnt my own tab, but i think its really gd, so it shud b on here

Intro (guitar 1 and 2) (acoustic)
e|--------------------------------------------------------------------------|
B|-----0------0-----0------0-------0-----0-----0-----0-------0------0-------|
G|-------2------2-----2----------2---2-----2-----2-----2-------2------2-----|
D|---2------2------2-----2---2-0-------2-----2-----2-------2------2-------2-|
A|-0-----------------------------------------------------0--------------0---|
E|--------------------------------------------------------------------------|

    ------------------------------------|
    0-----0-------0-----0-----0-----0---|
    --2-----2---2---2-----2-----2-----2-|(X3)
    ----2-----0-------2-----2-----2-----|
    ------------------------------------|
    ------------------------------------|

3rd time replace the last part with G|-7777777777777777-|
                                    D|-7777777777777777-|
                                    A|-5555555555555555-|
                                    E|------------------|
you can also play the intro like this if you don't have a bass or anything in the background
e|--------------------------------------------------------------------------|
B|-----0------0-----0------0-------0-----0-----0-----0-------0------0-------|
G|-------2------2-----2----------2---2-----2-----2-----2-------2------2-----|
D|---2------2------2-----2---2-0-------2-----2-----2-------2------2-------2-|
A|-0------------------------------------------------------------------------|
E|-------------------------------------------------------2--------------0---|

     ------------------------------------|
     0-----0-------0-----0-----0-----0---|
     --2-----2---2---2-----2-----2-----2-|(X3)
     ----2-----0-------2-----2-----2-----|
     ------------------------------------|
     ------------------------------------|
[ Tab from: http://www.guitartabs.cc/tabs/a/all_american_rejects/too_far_gone_tab_ver_3.html ]
Pre-Chorus (guitar 1 and 2)(distorted)
e|----------------------------------------------|
B|----------------------------------------------|
G|----xx-7~-------xx-9~-------xx-7~-------------|
D|-4~-xx-7~-xx-7~-xx-9~-xx-4~-xx-7~-xx-7~-xx-2~-|
A|-4~-xx-5~-xx-7~-xx-7~-xx-4~-xx-5~-xx-7~-xx-2~-|
E|-2~-------xx-5~-------xx-2~-------xx-5~-xx-0~-|

Chorus (guitar 1)(acoustic)
e|-0---0---0-----------------------------|
B|-0---0---3-----------------------------|(X2)
G|-2---2---2-----------------------------|
D|-2---2---0-----------------------------|
A|-0---2---0-----------------------------|                      ^^ ^
E|-0---0---0-| the strumming goes ||||---| (down down up up down up)
                                  vv  v
just listen to the beat. the 2nd time, let the Dsus2 ring

middle part (guiars 1 and 2)(distorted)
e|----------------------------|
B|----------------------------|
G|----xx-7~-------------xx-7~-|
D|-7~-xx-7~-xx-4~-xx-2~-xx-7~-|
A|-7~-xx-5~-xx-4~-xx-2~-xx-5~-|
E|-5~-------xx-2~-xx-0~-------|

Verse 2 (guitars 1 and 2) p.m (distorted)
e|-----------------------------------------|
B|-----------------------------------------|
G|-----------7---------------------7-------|
D|-7---------7-(X16)-4------2------7-(X16)-|
A|-7--(X16)--5-------4-(X8)-2-(X8)-5-------|
E|-5-----------------2------0--------------|
2nd time, let off the palm mute on the D chord.

Pre-chorus
Chorus X2

Bridge (guitars 1 and 2)(distorted)
e|-------------|
B|-------------|
G|-------------|
D|-6666-7~-2-2-|(X4)
A|-6666-7~-2-2-|
E|-4444-5~-0-0-|
last time don't play the E chord
e|----------------------------------------|
B|----------------------------------------|
G|----xx-7~-------xx-9~-------xx-7~-------|
D|-4~-xx-7~-xx-7~-xx-9~-xx-4~-xx-7~-xx-2~-|
A|-4~-xx-5~-xx-7~-xx-7~-xx-4~-xx-5~-xx-2~-|
E|-2~-------xx-5~-------xx-2~-------xx-0~-|

Intro (when you're ending the intro part, just strum the last three strings, listen to 
you'll get it)
Chorus X2
end on D|-7~-|
       A|-7~-|(distorted)
       E|-5~-|
Comments