All-american Rejects - Too Far Gone Chords & Tabs

 

Too Far Gone Chords & Tabs

All-american Rejects Chords & Tabs

Version: 1 Type: Tab 0 ratings
1 star 2 stars 3 stars 4 stars 5 stars
comments

Too Far Gone Tab

Band: All-American Rejects
Song:Too Far Gone
Tabbed By: Mike D

Intro - Picking Part
e|----------------------------------------------|
B|------0------0------0------0------------------|
G|-------2------2------2------2-----------------|
D|----2------2------2------2--------------------|
A|--0-------------------------------------------|
E|----------------------------------------------|
[ Tab from: http://www.guitartabs.cc/tabs/a/all_american_rejects/too_far_gone_tab.html ]
e|----------------------------------------------|
B|------0------0------0------0------------------|
G|----2---2------2------2------2----------------|
D|--0--------0------0------0--------------------|
A|----------------------------------------------|
E|----------------------------------------------|
O.K. You should have the picking down by now so ill just tell u the first
notes u play
Do The Picking after these notes!! When u play on the E put your finger back on
the 2 fret on d string
Its pretty easy dont think too hard.
e|----------------------------------------------|
B|----------------------------------------------|
G|----------------------------------------------|
D|----0------0----------------------------------|
A|-0--------------------------------------------|
E|------2--0------------------------------------|

Intro Background/Part of Verse
e|----------------------------------------------|
B|----------------------------------------------|
G|--2--7-----9--2-------------------------------|
D|--2--7--7--9--2-------------------------------|
A|--0--5--7--7--0-------------------------------|
E|--------5-------------------------------------|

(let you go somehow...) - Build up
e|----------------------------------------------|
B|----------------------------------------------|
G|-2--------------------------------------------|
D|-2--------------------------------------------|
A|-0--------------------------------------------|
E|----------------------------------------------|

(Now we're too far gone...)
e|----------------------------------------------|
B|----------------------------------------------|
G|-----7-----7--2-------------------------------|
D|--4--7--7--7--2-------------------------------|
A|--4--5--7--9--0-------------------------------|
E|--2-----5-------------------------------------|
This should satisfy you until someone writes a better one ;)
This one is for Jon(Monty G) Happy Birthday!!!
Comments