All American Rejects - Time Stands Still Chords & Tabs

 

Time Stands Still Chords & Tabs

All American Rejects Chords & Tabs

Version: 3 Type: Tab 0 ratings
1 star 2 stars 3 stars 4 stars 5 stars
comments

Time Stands Still Tab

   
      ____   ____  ____
     / __ \ / __ \ | _ \
     ||==|| ||==|| ||_//
     ||  || ||  || || \\
 = The All-American Rejects =
     = Time Stands Still =

Tabbed by: Tony
Email: fishboneul03@yahoo.com

Modified by: Johnnez
Email: SparKzKJR@yahoo.com

Tuning: Standard

Intro/verses (acoustic)
e|--xx-0--0—-0x0--0--0-xx--1--1--1x1--1-1-|  R
B|--xx-1--1—-1x1--1--1-xx--1--1--1x1--1-1-|  E
G|--xx-0--0—-0x0--0--0-xx--2--2--2x2--2-2-|  P
D|--xx-2--2—-2x0--0--0-xx--2--2--2x2--2-2-|  E
A|--xx-3--3—-3x2--2--2-xx--0--0--0x0--0-0-|  A
E|----------------------------------------|  T

Near End of Verses (Piano to Guitar)

Let Ring
e|-------------------------------------------------------------------|
B|--13-----12--------------------------------------------------------|
G|-----------------14----------12------------------------------------|
D|-------------------------------------15------14------------12------|
A|----------------------------------------------------------------15-|
E|-------------------------------------------------------------------|

Chorus (Electric with distortion)

Guitar 1
e|----------------------------------------|  R
B|----------------------------------------|  E
G|---5--5---------------------------------|  P
D|---5--5--------5--5-----3--3-------3--3-|  E
A|---3--3--xxxx--5--5-xx--3--3-xxxx--3--3-|  A
E|---------xxxx--3--3-xx--1--1-xxxx--1--1-|  T

       (Keyboard to Guitar)\

Guitar 2
e|--------------------------------------|  R
B|--------------------------------------|  E
G|--------------------------------------|  P
D|--------------------------------------|  E
A|-7---7---7---7---7---10---8---7-------|  A
E|---8---8---8---8---8---8---8---8------|  T




Verse2 (Electric with Distortion)
[ Tab from: http://www.guitartabs.cc/tabs/a/all_american_rejects/time_stands_still_tab_ver_3.html ]
The way we are…
e|-------------------------------------------------------------------------------|
B|-------------------------------------------------------------------------------|
G|----------------------5-5-5-5--------------------------------------------------|
D|--2-2-2-2---3-3-3-3---5-5-5-5---5-5-5-5---2-2-2-2---3-3-3-3---5-5-5-5-5-5-5-5--|
A|--2-2-2-2---3-3-3-3---3-3-3-3---5-5-5-5---2-2-2-2---3-3-3-3---5-5-5-5-5-5-5-5--|
E|--0-0-0-0---1-1-1-1-------------3-3-3-3---0-0-0-0---1-1-1-1---3-3-3-3-3-3-3-3--|

e|-------------------------------------------------------------------------------|
B|-------------------------------------------------------------------------------|
G|----------------------5-5-5-5-------------2-2-2-2------------------------------|
D|--2-2-2-2---3-3-3-3---5-5-5-5---5-5-5-5---2-2-2-2---5-5-5-5---3----------------|
A|--2-2-2-2---3-3-3-3---3-3-3-3---5-5-5-5---0-0-0-0---5-5-5-5---3----------------|
E|--0-0-0-0---1-1-1-1-------------3-3-3-3-------------3-3-3-3---1----------------|

Bridge (Last Chorus)
e|---------------------|  R
B|-13--12--------------|  E
G|--------14--12-------|  P
D|----------------15---|  E
A|---------------------|  A
E|---------------------|  T




Outro (Piano to Guitar)

Let Ring
e|--10-12----13-12----------------17--15--| R |-13-12---------|
B|-----------------15--12--13-------------| E |-------15--12--|
G|----------------------------------------| P |---------------|
D|----------------------------------------| E |---------------|
A|----------------------------------------| A |---------------|
E|----------------------------------------| T |---------------|

===============================================================================
| /  slide up                                                                 |
| \  slide down                                                               |
| h  hammer-on                                                                |
| p  pull-off                                                                 |
| ~  vibrato                                                                  |
| +  harmonic                                                                 |
| x  Mute note with fretting hand                                             |
===============================================================================

Order:
Intro
Verse
Chorus
Verse
Chorus
Verse2
Verse
Chorus
Outro

Johnnez, "Yo Tony, I saw some minor flaws in your tablature. So, I revised it.
Hope you liked it."

25% Johnnez
75% Tony
Comments