All American Rejects - Time Stands Still Chords & Tabs

 

Time Stands Still Chords & Tabs

All American Rejects Chords & Tabs

Version: 2 Type: Tab 0 ratings
1 star 2 stars 3 stars 4 stars 5 stars
comments

Time Stands Still Tab

Intro
this is the same as a previous tab of this song, but with a few minor alterations.
it sounds correct to me.

(acoustic)
e|---------1---
b|-1-x-1-x-1---
g|-0-x-0-x-2---
d|-2-x-0-x-3---
a|-3-x-2-x-----
e|-------------

(electric(distortion))  Youooooo....
e|---------------------
b|---------------------
g|------12--10---------
d|--10--12--10---------
a|--10--10--8----------
e|--8------------------

background picking..Intro/Verse
e|--------------
b|--------------
g|---------5----
d|-------5---5--
a|-----3--------
e|--------------

-play intro part for verses

bass comes in (with background picking)
  they day i knew you would leave....
  (the days they turn into years)....
g|-------------------
d|-------------------
a|--3333-------------
e|-------3333--1111-1<--let ring(second time)
[ Tab from: http://www.guitartabs.cc/tabs/a/all_american_rejects/time_stands_still_tab_ver_2.html ]
chorus
  youoooooo....
e|------------------------
b|------------------------
g|--5555--x---------------
d|--5555--x-5555--x-3333--
a|--3333--x-5555--x-3333--
e|--------x-3333--x-1111--

bridge
  the way we are....the way we were....
  -first and third time
e|--------------------------
b|--------------------------
g|--------------5555--------
d|--2222--3333--5555---5555-
a|--2222--3333--3333---5555-
e|--0000--1111---------3333-
  -second time
e|--------------------------
b|--------------------------
g|--------------------------
d|--2222--3333--5555--------
a|--2222--3333--5555--------
e|--0000--1111--3333--------
 
  -fourth time
e|---------------------------
b|---------------------------
g|--5555---------------------
d|--5555--5555-------3<------
a|--3333--5555-------3<------
e|--------3333-------1<---let ring

-bass parts are pretty much the same notes as the guitar

this is my first tab..but i'm pretty sure it's right, so leave me alone.
Comments