All American Rejects - Time Stands Still Chords & Tabs

 

Time Stands Still Chords & Tabs

All American Rejects Chords & Tabs

Version: 2 Type: Bass Tab 0 ratings
1 star 2 stars 3 stars 4 stars 5 stars
comments

Time Stands Still Bass Tab

   
----------------------------------------------------------------------------
		  TIME STANDS STILL -- All-American Rejects
----------------------------------------------------------------------------
Tabbed By : Spartan101
e-mail: www.zpro@sbcglobal.net

Tuning: Standard

Intro
G|--------------------------------|----------------------------------------|
D|--------------------------------|----------------------------------------|
A|-3-3-3--------------------------|-3-3-3----------------------------------|
E|-------xxx-3-3-xx-1-1-1-xxx-1-1-|-------xxx-3-3-xx-1-1-1/8-8-8-8-8-------|

Verse(Bass comes in at "The day I...")
G|-------------------------------------------------------------------------|
D|-------------------------------------------------------------------------|
A|-3-3-3-3--------------------------3-3-3-3--------------------------------|
E|---------3-3-3-3-1-1-1-1-1-1-1-1----------3-3-3-3-1~~--------------------|

Pre-chorus("Can you hear...")
G|----------|
D|----------|
A|-3--------|
E|---3~~----|
[ Tab from: http://www.guitartabs.cc/tabs/a/all_american_rejects/time_stands_still_btab_ver_2.html ]
Chorus (x4)
G|---------------------------------------|
D|---------------------------------------|
A|-3-3-3---------------------------------|
E|-------xxx-3-3-xx-1-1-1-xxx-1-1--------|

Verse

Pre-chorus

Chorus

Bridge
G|-------------------------------------------------------------------------|
D|-------------------------------------------------------------------------|
A|-----------------3-3-3-3-------------------------3-3-3-3-3-3-3-3---------|
E|-0-0-0-0-1-1-1-1---------3-3-3-3-0-0-0-0-1-1-1-1-----------------0-0-0-0-|
(continued)
G|----------------------------------------------|
D|----------------------------------------------|
A|---------3-3-3-3------------------------------|
E|-1-1-1-1---------3-3-3-3-5-5-5-5-3-3-3-3-1~~~-|

Verse

Chorus
(on fourth time, don't play the last two 1s.Instead keep x-ing until the drums are
finished with the 'slapping'. Then repeat the chorus four more times.)

| /  slide up
| \  slide down
| h  hammer-on
| p  pull-off
| ~  vibrato
| +  harmonic
| x  Mute note
============================================================================
Comments