All American Rejects - The Last Song Chords & Tabs

 

The Last Song Chords & Tabs

All American Rejects Chords & Tabs

Version: 1 Type: Tab 0 ratings
1 star 2 stars 3 stars 4 stars 5 stars
comments

The Last Song Tab

   
-------------------------------------------------------------------------------
			     The Last Song - The All-American Rejects
-------------------------------------------------------------------------------

Tabbed by: Loudboy	
Email: John@rapid-design.net
Site: http://www.rapid-design.net
Just Play through it exactly as it is tabbed :)

Tuning: Standard (E-A-D-G-B-E)

Intro - I know it is sorta violins but these are the chords it is based on :)
e|---------------------------------------------------------------------------|
B|---------------------------------------------------------------------------|
G|---------------------------------------------------------------------------|
D|-11--8--6--11--8--6--11----------------------------------------------------|
A|-11--8--6--11--8--6--11----------------------------------------------------|
E|-9---6--4--9---6--4--9-----------------------------------------------------|

Verse
e|---------------------------------------------------------------------------|
B|---------------------------------------------------------------------------|
G|---------------------------------------------------------------------------|
D|-6-6666666666666--3-333333333333333----------------------------------------|
A|-4-4444444444444--1-111111111111111--6-6666666666666--444444444444444444---|
E|-------------------------------------4-4444444444444--222222222222222222---|

Pre-Chorus
Guitar One
e|---------------------------------------------------------------------------|
B|---------------------------------------------------------------------------|
G|---------------------------------------------------------------------------|
D|-333333----------6666666----------333333--------6666666--------------------|
A|-111111--4444444-4444444-6666666--111111-444444-4444444-6666666------------|
E|---------2222222---------4444444---------222222---------4444444------------|
Guitar Two
e|---------------------------------------------------------------------------|
B|---------1-2-------------1-2-------------1-2------------1-2----------------|
G|-------------1---------------1---------------1--------------1--------------|
D|---------------------------------------------------------------------------|
A|---8---------------8----------------8-------------8------------------------|
E|-6----9----------6----9-----------6----9--------6----9---------------------|

Chorus
e|---------------------------------------------------------------------------|
B|---------------------------------------------------------------------------|
G|---------------------------------------------------------------------------|
D|-6-66666666666666666666666666----------------------------------------------|
A|-4-44444444444444444444444444-8-44444444444444444444444444--99999999999999-|
E|------------------------------6-22222222222222222222222222--77777777777777-|

e|---------------------------------------------------------------------------|
B|---------------------------------------------------------------------------|
G|---------------------------------------------------------------------------|
D|---------------------------------------------------------------------------|
A|-9999999999-6666666666666666666666666666-----------------------------------|
E|-7777777777-4444444444444444444444444444-----------------------------------|

Verse 2
Guitar One
e|---------------------------------------------------------------------------|
B|---------------------------------------------------------------------------|
G|---------------------------------------------------------------------------|
D|-6-6666666666666--3-333333333333333----------------------------------------|
A|-4-4444444444444--1-111111111111111--6-666666666666666666666666666666666---|
E|-------------------------------------4-444444444444444444444444444444444---|
Guitar Two
e|----999\--999\-------999\--999\--------------------------------------------|
B|----666\--666\-------666\--666\--------------------------------------------|
G|----------------------------------------------4---------------5------------|
D|------------------------------------------6---------------6----------------|
A|---------------------------------------------------------------------------|
E|----------------------------------------4---------------4------------------|
Guitar One
e|---------------------------------------------------------------------------|
B|---------------------------------------------------------------------------|
G|---------------------------------------------------------------------------|
D|-6-6666666666666--3-333333333333333333333----------------------------------|
A|-4-4444444444444--1-111111111111111111111---6666666666666666666666666666666|
E|--------------------------------------------4444444444444444444444444444444|
Guitar Two
e|----999\--999\-------13-13-13\--13-13-13\----------------------------------|
B|----666\--666\-------9--9--9\---9--9--9\-----------------------------------|
G|--------------------------------------------------4---------------5--------|
D|----------------------------------------------6---------------6------------|
A|---------------------------------------------------------------------------|
E|--------------------------------------------4---------------4--------------|
[ Tab from: http://www.guitartabs.cc/tabs/a/all_american_rejects/the_last_song_tab.html ]
e|---------------------------------------------------------------------------|
B|---------------------------------------------------------------------------|
G|---------------------------------------------------------------------------|
D|---------------------------------------------------------------------------|
A|-444444444444444444444444444444444-----------------------------------------|
E|-222222222222222222222222222222222-----------------------------------------|

Pre-Chorus
Guitar One
e|---------------------------------------------------------------------------|
B|---------------------------------------------------------------------------|
G|---------------------------------------------------------------------------|
D|-333333----------6666666----------333333--------6666666--------------------|
A|-111111--4444444-4444444-6666666--111111-444444-4444444-6666666------------|
E|---------2222222---------4444444---------222222---------4444444------------|
Guitar Two
e|---------------------------------------------------------------------------|
B|---------1-2-------------1-2-------------1-2------------1-2----------------|
G|-------------1---------------1---------------1--------------1--------------|
D|---------------------------------------------------------------------------|
A|---8---------------8----------------8-------------8------------------------|
E|-6----9----------6----9-----------6----9--------6----9---------------------|

Chorus
e|---------------------------------------------------------------------------|
B|---------------------------------------------------------------------------|
G|---------------------------------------------------------------------------|
D|-6-66666666666666666666666666----------------------------------------------|
A|-4-44444444444444444444444444-8-44444444444444444444444444--99999999999999-|
E|------------------------------6-22222222222222222222222222--77777777777777-|

e|---------------------------------------------------------------------------|
B|---------------------------------------------------------------------------|
G|---------------------------------------------------------------------------|
D|---------------------------------------------------------------------------|
A|-9999999999-6666666666666666666666666666-----------------------------------|
E|-7777777777-4444444444444444444444444444-----------------------------------|

Interlude (violins so i just put chords again :)
e|---------------------------------------------------------------------------|
B|---------------------------------------------------------------------------|
G|---------------------------------------------------------------------------|
D|-11--8--6--11-11-11-11-11-11-11-11--3333333333333333-----------------------|
A|-11--8--6--11-11-11-11-11-11-11-11--3333333333333333-4444444444444444444444|
E|-9---6--4--9--9--9--9--9--9--9--9---1111111111111111-2222222222222222222222|

e|---------------------------------------------------------------------------|
B|---------------------------------------------------------------------------|
G|---------------------------------------------------------------------------|
D|----------------------6---------------------------------------3-4-4-4-4-4-4|
A|-4444444444444444444--4---4-4-4-4-4-4-4-4-4-6-8-8-8-8-8-8-8-8--------------|
E|-2222222222222222222-------------------------------------------------------|

e|---------------------------------------------------------------------------|
B|---------------------------------------------------------------------------|
G|---------------------------------------------------------------------------|
D|-4-4-4-3-4-6-6-6-6-6-6-6-6-6-----------------------------------------------|
A|---------------------------------------------------------------------------|
E|---------------------------------------------------------------------------|

Chorus
e|---------------------------------------------------------------------------|
B|---------------------------------------------------------------------------|
G|---------------------------------------------------------------------------|
D|-6-66666666666666666666666666----------------------------------------------|
A|-4-44444444444444444444444444-8-44444444444444444444444444--99999999999999-|
E|------------------------------6-22222222222222222222222222--77777777777777-|

e|---------------------------------------------------------------------------|
B|---------------------------------------------------------------------------|
G|---------------------------------------------------------------------------|
D|---------------------------------------------------------------------------|
A|-9999999999-6666666666666666666666666666-----------------------------------|
E|-7777777777-4444444444444444444444444444-----------------------------------|

e|---------------------------------------------------------------------------|
B|---------------------------------------------------------------------------|
G|---------------------------------------------------------------------------|
D|-6-66666666666666666666666666----------------------------------------------|
A|-4-44444444444444444444444444-8-44444444444444444444444444--99999999999999-|
E|------------------------------6-22222222222222222222222222--77777777777777-|

e|---------------------------------------------------------------------------|
B|---------------------------------------------------------------------------|
G|---------------------------------------------------------------------------|
D|------------------------------------------6--------------------------------|
A|-9999999999-6666666666666666666666666666--4--------------------------------|
E|-7777777777-4444444444444444444444444444-----------------------------------|


| /  slide up
| \  slide down
| h  hammer-on
| p  pull-off
| ~  vibrato
| +  harmonic
| x  Mute note

===============================================================================
Comments