All-american Rejects - The Cigarette Song Chords & Tabs

 

The Cigarette Song Chords & Tabs

All-american Rejects Chords & Tabs

Version: 2 Type: Tab 0 ratings
1 star 2 stars 3 stars 4 stars 5 stars
comments

The Cigarette Song Tab

The All american rejects - the cigarette song
Tabbed by Darlene J.
Email dj8008@hotmail.com

Intro
E-0--2-5----------------5-4-2-----|
B-0--2-5----------------5-4-2-----|
G-1--2-6----4x----------6-4-2-----|
D-2--4-7--then it goes--7-6-4-----|
A-2--4-7----------------7-6-4-----|
E-0--2-5----------------5-4-2-----|

Palm Mute
E----------0--0-------------------|
B----------0----0-----------------|
G----4--6--2------5----1----------|
D-2--4--6--2----------------------|
A-2--2--4--0----------------------|
E-0-------------------------------|

E--------0--4-0-----------------|
B--------0--6-0-----------------|
G---4-6--2--6-2-----------------|
D-2-4-6--2--6-2-----------------|
A-2-2-4--0--4-0-----------------|
E-0------0----0-----------------|
[ Tab from: http://www.guitartabs.cc/tabs/a/all_american_rejects/the_cigarette_song_tab_ver_2.html ]
E-0---7---------4-5-0--------------5-------|
B-0---7---------4-5-0--------------5-------|
G-1---8---------4-6-1--------------6-------|
D-2---9--2x-----6-7-2--4x----------7-------|
A-2---9---------6-7-2--end chord---7-------|
E-0---7---------4-5-0-----on-------5-------|

E-0--7------|
B-0--7------|
G-1--8------|
D-2--9------|
A-2--9------|
E-0--7------|

E---------------------------------------------------------|
B---------------------------------------------------------|
G-------------------------------------------1-------------|
D-----2---2-1-2--------2---2-1-2-------2------2---2-------|
A---2---2-------2----2---2-------2----2--2------2---------|
E-0----------------5-----------------0--------------------|

E----------------------------|
B----------------------------|
G----------2-1---------------|
D-----2---------4--6---------|
A---2---2--------------------|
E-0--------------------------|

end it on
E-----------------0-----------|
B-----------------0-----------|
G--------1--------1-----------|
D----2-----2--2---2-----------|
A---2--2-----2----2-----------|
E-0---------------0-----------|
Comments