All American Rejects - Swing Swing Chords & Tabs

 

Swing Swing Chords & Tabs

All American Rejects Chords & Tabs

Version: 7 Type: Tab 0 ratings
1 star 2 stars 3 stars 4 stars 5 stars
comments

Swing Swing Tab

   
-------------------------------------------------------------------------------
			     Swing Swing - All-American Rejects
-------------------------------------------------------------------------------

Artist: All-American Rejects
Albulm: All-American Rejects
Song title: Swing swing
Tabbed by: Zero is great man.
Tuning: Standard: Right : EADGBe
[ Tab from: http://www.guitartabs.cc/tabs/a/all_american_rejects/swing_swing_tab_ver_7.html ]
Organ plays: Cm(C D# G) Gm(G A# D) Em(E F# C) Cm(C D# G) 
| |  | |  | | |  | |  | |  | |
| |  | |  | | |  | |  | |  | |
| |  | |D#| | |F#| |  | |A#| |
| |  | |  | | |  | |  | |  | |
| |__| |__| | |__| |__| |__| |
|   |   |   |   |   |   |    |(note these are where the keys are located,
| C |   | E |   | G |   |    | not how and where they are played)
|___|___|___|___|___|___|____|

Guitar plays:(With heavy distortion)
e|--------------------------------|
B|--------------------------------|
G|-5-5--5------------------5-5--5-|
D|-5-5--5--5-5--5--2-2--2--5-5--5-|
A|-3-5--3--5-5--5--2-2--2--3-3--3-|
E|---------3-3--3--0-0--0---------|


| /  slide up
| \  slide down
| h  hammer-on
| p  pull-off
| ~  vibrato
| +  harmonic
| x  Mute note

I'll probably have more of the song as soon as I figure out the rest.
Peace out.
================================================================================
Comments