All American Rejects - Swing Swing Chords & Tabs

 

Swing Swing Chords & Tabs

All American Rejects Chords & Tabs

Version: 6 Type: Tab 0 ratings
1 star 2 stars 3 stars 4 stars 5 stars
comments

Swing Swing Tab

Song: Swing Swing
Artist: All-american Rejects                UPDATED!!!    3/4/06
Album: All-american Rejects
Tabbed by: WingNutt376


This was sort of hard to figure out only because there were lots of gaps
to fill in.

Just play the whole song with HEAVY DISTORTION throughout the song and it
should sound really good. Have Fun!


Intro:
e------------------------------------------------|
b------------------------------------------------|
g----------------------------55x-5x--------------| x2
d-55x-5x---55x-5x---22x-2x---55x-5x--------------|
a-55x-5x---55x-5x---22x-2x---33x-3x--------------|
E-33x-3x---22x-2x---00x-0x-----------------------|


Chorus:
e-----------------------------------------------------------------------|
b-----------------------------------------------------------------------|
g-------------------7-7-7-7-7-7-7-7---------------------5-5-5-5-5-5-5-5-| x2
d-5-5-5-5-5-5-5-5---7-7-7-7-7-7-7-7---2-2-2-2-2-2-2-2---5-5-5-5-5-5-5-5-|
a-5-5-5-5-5-5-5-5---5-5-5-5-5-5-5-5---2-2-2-2-2-2-2-2---3-3-3-3-3-3-3-3-|
E-3-3-3-3-3-3-3-3---------------------0-0-0-0-0-0-0-0-------------------|


Verse:
e-----7-7x--7x-----7-7x--7x-----7-7x--7x-----7-7x--7x---------|
b-----8-8x--8x-----8-8x--8x-----8-8x--8x-----8-8x--8x---------|
g-----7-7x--7x-----7-7x--7x-----7-7x--7x-----7-7x--7x---------| x2
d-------------------------------------------------------------|
a-------------------------------------------------------------|
E-------------------------------------------------------------|


Interlude:
e------------------------------------------------------------------------|
b------------------------------------------------------------------------|
g-------------------------------------------------------5-5-5-5-5-5-5-5--|
d-5-5-5-5-5-5-5-5---5-5-5-5-5-5-5-5---2-2-2-2-2-2-2-2---5-5-5-5-5-5-5-5--| x2
a-5-5-5-5-5-5-5-5---5-5-5-5-5-5-5-5---2-2-2-2-2-2-2-2---3-3-3-3-3-3-3-3--|
E-3-3-3-3-3-3-3-3---3-3-3-3-3-3-3-3---0-0-0-0-0-0-0-0--------------------|
[ Tab from: http://www.guitartabs.cc/tabs/a/all_american_rejects/swing_swing_tab_ver_6.html ]
e-----------------------|
b-----------------------|
g--hold------hold-------|
d---9---------10--------|
a---9---------10--------|
E---7---------8---------|
   I'll find someone new


Solo:
e--------------------------------------15------12h14-12---------------------|
b8/15-15-15-15-15-15-13-12--12-12-13--------12---------12-12/13-------------|
g-----------------------------------12--------------------------------------|
d---------------------------------------------------------------------------|
a---------------------------------------------------------------------------|
E---------------------------------------------------------------------------|

e---------------------------------------------------------------------------|
b-15-15-15-15-15-15--13-12--13-12--12-13------15-12--13-13-13--15-15-15--16-|
g----------------------------------------12---16-12--14-14-14--16-16-16--16-|
d---------------------------------------------------------------------------|
a---------------------------------------------------------------------------|
E---------------------------------------------------------------------------|

Outro:
e---------------------------------------------------------------------------|
b---------------------------------------------------------------------------|
g----------5-5-x----------------------5~~----------------------------5-5-x--|
d-2-2-x----5-5-x----5~~---------------5~~-------------------2-2-x----5-5-x--|
a-2-2-x----3-3-x----5~~---------------3~~-------------------2-2-x----3-3-x--|
E-0-0-x-------------3~~-------------------------------------0-0-x-----------|
  Bury     me        you thought your problems were gone    Carry    me

e----------------------------------------------------------------------|
b----------------------------------------------------------------------|
g---5-5-5-5-5-5-5-5-5-5-5-5-5-5-5-5-5-5-5-5-5-5-5-5--------------------|
d---5-5-5-5-5-5-5-5-5-5-5-5-5-5-5-5-5-5-5-5-5-5-5-5--------------------|
a---3-3-3-3-3-3-3-3-3-3-3-3-3-3-3-3-3-3-3-3-3-3-3-3--------------------|
E----------------------------------------------------------------------|
       Away         Away         Away...............


Intro
Chorus
Verse
Interlude
Chorus
Verse
Interlude
Chorus
Solo
Outro
Chorus(x6): as you fade out
Comments