All American Rejects - Swing Swing Chords & Tabs

 

Swing Swing Chords & Tabs

All American Rejects Chords & Tabs

Version: 4 Type: Tab 0 ratings
1 star 2 stars 3 stars 4 stars 5 stars
comments

Swing Swing Tab

   
Artist: All-American Rejects
Song: Swing Swing
Tabbed by Garrett Heinz (garritto@hotmail.com)

I looked around for a tab of this song, but none were sounding as I wanted it to. So I decided to put my version of the song online, this is the way I believe resembles the CD best. I am a beginner so certain parts (the solo) are not exactly complete but I have fun playing this easy song and think it sounds the best of all the tabs out there.

Tuning: standard (EADGBE)

Intro
 G5        F#5      G5       C5
e------------------------------------------------------------------------------
b------------------------------------------------------------------------------
g------------------------------------------------------------------------------ X2
d-5-5--5---5-5--5---5-5--5---10-10--10-----------------------------------------
a—5-5--5---5-5—-5---5-5—-5---10-10—-10-----------------------------------------
e-3-3—-3---2-2—-2---3-3—-3---8—-8---8------------------------------------------

Chorus
 G5                 F#5               C#5               C5
e------------------------------------------------------------------------------
b------------------------------------------------------------------------------
g-------------------------------------4-4-4-4-4-4-4-4---5-5-5-5-5-5-5-5-------- X2
d-5-5-5-5-5-5-5-5---5-5-5-5-5-5-5-5---4-4-4-4-4-4-4-4---5-5-5-5-5-5-5-5--------
a-5-5-5-5-5-5-5-5---5-5-5-5-5-5-5-5---2-2-2-2-2-2-2-2---3-3-3-3-3-3-3-3--------
e-3-3-3-3-3-3-3-3---2-2-2-2-2-2-2-2--------------------------------------------

Verse (same as intro)
G5        F#5      G5       C5
e------------------------------------------------------------------------------
b------------------------------------------------------------------------------
g------------------------------------------------------------------------------ X2
d-5-5--5---5-5--5---5-5--5---10-10--10-----------------------------------------
a—5-5--5---5-5—-5---5-5—-5---10-10—-10-----------------------------------------
e-3-3—-3---2-2—-2---3-3—-3---8—-8---8------------------------------------------
[ Tab from: http://www.guitartabs.cc/tabs/a/all_american_rejects/swing_swing_tab_ver_4.html ]
Interlude
  G5                	               C#5         C5
e------------------------------------------------------------------------------
b------------------------------------------------------------------------------
g-----------------------------------4-4-4-4-4---5-5-5-5-5-5-------------------- X2 
d-5-5-5-5-5-5-5-5-5-5-5-5-5-5-5-5---4-4-4-4-4---5-5-5-5-5-5--------------------
a-5-5-5-5-5-5-5-5-5-5-5-5-5-5-5-5---2-2-2-2-2---3-3-3-3-3-3--------------------
e-3-3-3-3-3-3-3-3-3-3-3-3-3-3-3-3----------------------------------------------
  G5            C5
e------------------------------------------------------------------------------
b------------------------------------------------------------------------------
g-------------------------------HOLD LAST C5-----------------------------------
d-5-5-5-5-5-5---10-10-10-10-10-10—---------------------------------------------
a-5-5-5-5-5-5---10-10-10-10-10-10----------------------------------------------
e-3-3-3-3-3-3---8—-8—-8—-8—-8—-8-----------------------------------------------

Solo
e-------------------------------15-14-12------------------------------------------------
b----15-15-13-12-12-13-------------------12-15-15-13-12-12-13---------------------------
g-12-------------------12-12-12-------------------------------12-11-11-11-11-12-12-12-12
d---------------------------------------------------------------------------------------
a---------------------------------------------------------------------------------------
e---------------------------------------------------------------------------------------

  E5    D5              B5            C5
e--------------------------------------------------------------------------------------
b--------------------------------------------------------------------------------------
g-9-9---7-7-------------HOLD----------HOLD---------------------------------------------
d-9-9---7-7-------------9-------------10-----------------------------------------------
a-7-7---5-5-------------9-------------10-----------------------------------------------
e-----------------------7-------------8------------------------------------------------

Progression
Intro (x2)
Chorus (x2)
Verse (x2)
Interlude (x2)
Chorus (x2)
Verse (x2)
Interlude (x2)
Chorus (x2)
Solo (x1), after the solo play a bunch of C5 power chords 
Chorus (as the song fades)











Comments