All American Rejects - Swing Swing Chords & Tabs

 

Swing Swing Chords & Tabs

All American Rejects Chords & Tabs

Version: 3 Type: Tab 1 rating
1 star 2 stars 3 stars 4 stars 5 stars
comments

Swing Swing Tab

Band:All-American Rejects
Song:Swing Swing
Tuning:Standard Tunning
Tabbed By: Mahesh Kotagi

Intro:2x 
play like one two and three ...play on numbers or listen to cd for timing
e----------------------------------------
b----------------------------------------
g----------------------------------------
d-5-5--5---5-5--5---5-5--5---10-10--10---
a-5-5--5---5-5--5---5-5--5---10-10--10---
E-3-3--3---2-2—-2---0-0—-0---8--8—--8----

Chorus:
e----------------------------------------------------------------------
b----------------------------------------------------------------------
g-------------------7-7-7-7-7-7-7-7---------------------5-5-5-5-5-5-5-5
d-5-5-5-5-5-5-5-5---7-7-7-7-7-7-7-7---2-2-2-2-2-2-2-2---5-5-5-5-5-5-5-5
a-5-5-5-5-5-5-5-5---5-5-5-5-5-5-5-5---2-2-2-2-2-2-2-2---3-3-3-3-3-3-3-3
E-3-3-3-3-3-3-3-3---------------------0-0-0-0-0-0-0-0------------------
[ Tab from: http://www.guitartabs.cc/tabs/a/all_american_rejects/swing_swing_tab_ver_3.html ]
do palm muting some of the time

mite be a bit wrong......o well
Solo:
e--------------------------------------15------14-12--------------------
b8/15-15-15-15-15-13-12--12-12-13--------12------12-12/13------------
g-----------------------------------12----------------------------------
d-----------------------------------------------------------------------
a-----------------------------------------------------------------------
E-----------------------------------------------------------------------

e----------------------------------------15-----------------------------
b-15-15-15-15-15-15--13-12--13-12--13-----------12----------------------
g-------------------------------------12------12---11-12-14-------------
d-----------------------------------------------------------------------
a-----------------------------------------------------------------------
E-----------------------------------------------------------------------
Comments