All American Rejects - Swing Swing Chords & Tabs

 

Swing Swing Chords & Tabs

All American Rejects Chords & Tabs

Version: 2 Type: Tab 0 ratings
1 star 2 stars 3 stars 4 stars 5 stars
comments

Swing Swing Tab

   
The All American Rejects
Swing Swing

Tabbed by James Lindsay
High_County_Boarder@hotmail.com
Guitartabs.cc User name: Best Name Ever
May 18,2003
For Personal use only

Note: this is my first big tab, after tabbing out this damn song I want to say thank you to everyone who tabs out songs, its more work than you think.


Enjoy

        G                         		       Dsus4/F#		       Em7
e----3------3------------3------x--------3----3---x--3----x------3-----3----x----3------x--„³
B---3------3------------3------x--------3----3---x---3---x------3-----3----x----3------x-„³
D---0------0----X------0------x--------2----2--x----2--x-------0-----0----x----0------x„³
G---0------0----X------0------x--------0----0--x----0--x-------2-----2----x----2------x„³-
A---2------2----X------2------x--------0----0--x----0--x-------2-----2----x----2------x„³-
E---3------3----X------3------x--------2----2--x----2--x------(x)----(x)--x----x------x-„³


      Cadd9
e-----3----3---x----3-----------------------------------------------------------------------------
B----3----3---x----3-----------------------------------------------------------------------------
D----0----0---x----0--------------------Repeat-----2x-----------------------------------------
G----2----2---x----2------------------------------------------------------------------------------
A----3----3---x----3------------------------------------------------------------------------------
E---(x)---(x)-x----(x)---------------------------------------------------------------------------

	G			Dsus4\F#
e--------3-3-3-3-3-3-3-3--3---------3-3-3-3-3-3-3-3-3-3----------------------------
B-------3-3-3-3-3-3-3-3--3---------3-3-3-3-3-3-3-3-3-3----------------------------
D-------0-0-0-0-0-0-0-0-0----------2-2-2-2-2-2-2-2-2-2---------------------„³----
G-------0-0-0-0-0-0-0-0-0----------0-0-0-0-0-0-0-0-0-0-----------------------------
A-------2-2-2-2-2-2-2-2-2----------0-0-0-0-0-0-0-0-0-0-----------------------------
E-------3-3-3-3-3-3-3-3-3-----------2-2-2-2-2-2-2-2-2-2----------------------------

Em7 8 times
Cadd9 8 times

Repeat 2x
Then
Play each power chord 8 or so times, just like above
e----------------------------------------------------
B----------------------------------------------------
D----------7-----------5------------------------------
G----5----7------2----5---------------------------------
A----5----5------2----3----------------------------------
E----3------------0------------------------------------

8 times
e----3---3--x---3-----
B---3---3--x---3----
D-----------*----------
G---------------------
A---------------------
E---------------------
*=silent delay
[ Tab from: http://www.guitartabs.cc/tabs/a/all_american_rejects/swing_swing_tab_ver_2.html ]
2x
e----------------------------
B---------------------------
D---------------------------
G---5---------2----------5----
A---5-(16x)--2-8x-----5-8x-
E---3---------0----------3-----


Solo (at 2:25)
e------------------------------------------------------------15--------12---14--------
A-----15-------15>----------13--12----12---13----------------------------------------
D-----------------------------------------------------12---------12-----------------------
G-----------------------------------------------------------------------------------------
B------------------------------------------------------------------------------------------
E-----------------------------------------------------------------------------------------


e---12------------------------------------------------------------------------------14-----15-----7
A-------12---13-----15------15---13-12----15----12----15---13-------12----x¡X3x-x-3x
D-------------------------------------------------------------------------12-------11------12----14
G--------------------------------------------------------------------------------------------------
B--------------------------------------------------------------------------------------------------
E---------------------------------------------------------------------------------------------------

Bridge (2:41)
          Em7		Dsus4/F#		G/B(slow strum)      slow strum
e-----3--3-----------3-----3-----------------------3------------------------------
A----3--3------------3-----3----------------------0------------------------------
D----0--0----hold--2-----2--hold 2 beats------0-----------------------5------
G----2--2----2------0---0------------------------0-----------------------5------
B----2---2--beats--0----0-----------------------2------------------------5------
E--------------------2----2------------------------------------------------3---------

Repeat without the G/B or G power chord



Outro

Play each power chord 8 or so times, just like above
e----------------------------------------------------
B----------------------------------------------------
D----------7-----------5------------------------------
G----5----7------2----5---------------------------------
A----5----5------2----3----------------------------------
E----3------------0------------------------------------

Repeat as necessary


Chords-

	G       Dsus4/F#   Em7	    Cadd2
e-------3--------3------------3---------3----------------
B------3--------3------------3---------3-----------------
D------0--------2------------0---------0-----------------
G------0--------0------------2---------2-----------------
A------2--------0------------2---------3-----------------
E ------3--------2--------------------------------------


Comments