All American Rejects - Swing Swing Chords & Tabs

 

Swing Swing Chords & Tabs

All American Rejects Chords & Tabs

Version: 12 Type: Tab 0 ratings
1 star 2 stars 3 stars 4 stars 5 stars
comments

Swing Swing Tab

   
==========================================================
"Swing, Swing"
==========================================================

Organ plays the chords G, D, Em, C

Intro
e|-33-3--33-3--33-3--33-3------------|
B|-33-3--33-3--33-3--33-3------------|
G|-00-0--00-0--00-0--00-0------------|
D|-00-0--00-0--22-2--22-2------------|
A|-22-2--22-2--22-2--33-3------------|
E|-33-3--22-2--00-0--xx-x------------|x2

e|---------
B|---------
G|---------
D|---------
A|---10\5--
E|----8\3--

Chorus
Guitar 1:
e|-------------------------------------|
B|-------------------------------------|
G|----------77777777----------55555555-|
D|-55555555-77777777-22222222-55555555-|
A|-55555555-55555555-22222222-33333333-|
E|-33333333----------00000000----------|

Guitar 2:
e|-------------------------------------|
B|-------------------------------------|
G|----------------------------55555555-|
D|-55555555-55555555-22222222-55555555-|
A|-55555555-55555555-22222222-33333333-|
E|-33333333-22222222-00000000----------|

Verse
Guitar 1:
e--------------------------------------------
b--------------------------------------------
g----------------------------------5-5--5----
d----5-5--5----5-5--5----2-2--2----5-5--5----
a----5-5--5----5-5--5----2-2--2----3-3--3----
E----3-3--3----2-2--2----0-0--0--------------

Guitar 2:
e|-------------------------------------|
B|-------------------------------------|
G|----------------------------55555555-|
D|-55555555-55555555-22222222-55555555-|
A|-55555555-55555555-22222222-33333333-|
E|-33333333-22222222-00000000----------|

Pre-Chorus 
e|-----------------------------------------------------------------------|
B|-----------------------------------------------------------------------|
G|-----------------------------------------------------------------------|
D|---------------------------55555555---------------------------55555555-|
A|-5555555555555555-22222222-33333333-5555555555555555-22222222-33333333-|
E|-3333333333333333-00000000----------3333333333333333-00000000----------|
   pm....................................................................	
   did you think... on the   phone?   Did you know...  like     being alone


e|-3-----------0------0-----|
B|-3-----------1------1-----|
G|-0-----------2------0-----|
D|-0-----------2------2-----|
A|-2-----------0------3-----|
E|-3-----------x------x-----|
("I'll find someone new...")


Solo  
Guitar 1:
e-------------------------------------15-------14-12--------------------
b-8/15-15-15-15-15--13-12--12-12-13------13-12-12---12-12/13------------
g-----------------------------------12----------------------------------
d-----------------------------------------------------------------------
a-----------------------------------------------------------------------
E-----------------------------------------------------------------------
[ Tab from: http://www.guitartabs.cc/tabs/a/all_american_rejects/swing_swing_tab_ver_12.html ]
e-15-15-15-15-15-15----------------------15-----------------------------
b-15-15-15-15-15-15--13-12--13-12--13-----------12----------------------
g-------------------------------------12------12---11-12-14-------------
d-----------------------------------------------------------------------
a-----------------------------------------------------------------------
E-----------------------------------------------------------------------

Guitar 2:
e|-------------------------------------|
B|-------------------------------------|
G|-------------------------------------| (2x during solo)
D|----------------------------55555555|
A|-55555555-55555555-22222222-33333333-|
E|-33333333-22222222-00000000----------|

Bridge

Guitar 1:
  Measure 1		  Measure 2
e|-----------3---0-|----------------------------|
B|-----------0---1-|----------------------------|
G|-99---77---0---0-|-99---77---5555555555555555-|
D|-99---77---0---2-|-99---77---5555555555555555-|
A|-77---55---2---3-|-77---55---3333333333333333-|
E|-----------3---0-|----------------------------|
  Bury Me...        Carry me... away away away...


Guitar 2 (Measure 2):
e|------3-2-2------------3-2-2-------|
B|------------3-3-5------------3-3-5-|
G|-----------------------------------| (Guitar 1 in parentheses)
D|-(99)-------------(77)-------------|
A|-(77)-------------(55)-------------|
E|-----------------------------------|

Outro (first the solo is played over the chorus, then this & fade)
e|----------------12-10-|
B|-12-12-12-13-12-------|
G|----------------------|
D|----------------------|
A|----------------------|
E|----------------------|

Song Order:

Intro               1x                 
Chorus              2x

Verse               8x
Pre-Chorus          1x
Chorus              2x

Verse               8x
Pre-Chorus          1x
Chorus              2x

Solo
Chorus              2x
Chorus (w/ solo)    1x
Chorus (w/ outro)   2x -> fade


==========================================================
"Swing, Swing"
==========================================================
Days swiftly come and go.
I'm dreaming of her
She's seeing other guys
Emotions they stir
The sun is gone.
The nights are long
And I am left while the tears fall.

Did you think that I would cry,
on the phone?
Do you know what it feels like,
being alone?
I'll find someone new

[Chorus]
Swing, Swing, Swing from the tangles of
My heart is crushed by a former love
Can you help me find a way
To carry on again.

Wish cast into the sky
I'm moving on
Sweet beginnings do arise
She knows I was wrong
The notes are old,
They bend, they fold
and so do I to a new love.

Did you think that I would cry,
on the phone?
Do you know what it feels like,
being alone?
I'll find someone new

Swing, Swing, Swing from the tangles of
My heart is crushed by a former love
Can you help me find a way
To carry on again

Bury me
(you thought your problems were gone)
Carry me
(away. away, away...)

[Chorus fades till end]
Swing, Swing, Swing from the tangles of
My heart is crushed by a former love
Can you help me find a way
To carry on again
Comments