All American Rejects - Swing Swing Chords & Tabs

 

Swing Swing Chords & Tabs

All American Rejects Chords & Tabs

Version: 11 Type: Tab 0 ratings
1 star 2 stars 3 stars 4 stars 5 stars
comments

Swing Swing Tab

   
Artist: The All-American Rejects
Song: Swing, Swing
Album: The All-American Rejects
Tuning: Standard (EADGBe)
Tabbed by: Samit Sarkar

corrections appreciated: samyankeesrock@yahoo.com or metsuck@optonline.net

*Distortion throughout, except where noted*

Song Order:
Intro 1x
Chorus 2x
Verse 8x
Pre-Chorus 1x
Chorus 2x
Verse 8x
Pre-Chorus 1x
Chorus 2x
Solo
Chorus 2x
Chorus (w/ solo) 1x
Chorus (w/ outro) 2x -> fade

Intro 
e|-----------------------------------|
B|-----------------------------------|
G|-----------------------------------|
D|----------------------------5-5--5-|
A|-5-5--5---5-5--5---2-2--2---3-3--3-|
E|-3-3--3---2-2--2---0-0--0----------|

e|---------------------------------------|
B|---------------------------------------|
G|---------------------------------------|
D|---------------------------------------|
A|-5-5--5---5-5--5---2-2--2---10-10--10\-|
E|-3-3--3---2-2--2---0-0--0---8--8---8\--|

Chorus

Guitar 1:
e|-------------------------------------|
B|-------------------------------------|
G|-------------------------------------|
D|----------77777777----------55555555-|
A|-55555555-55555555-22222222-33333333-|
E|-33333333----------00000000----------|

Guitar 2:
e|-------------------------------------|
B|-------------------------------------|
G|-------------------------------------|
D|----------------------------55555555-|
A|-55555555-55555555-22222222-33333333-|
E|-33333333-22222222-00000000----------|

Verse
e|-7-7--7-|
B|-8-8--8-|
G|--------|
D|--------|
A|--------|
E|--------|
[ Tab from: http://www.guitartabs.cc/tabs/a/all_american_rejects/swing_swing_tab_ver_11.html ]
Pre-Chorus 
e|-----------------------------------------------------------------------|
B|-----------------------------------------------------------------------|
G|-----------------------------------------------------------------------|
D|---------------------------55555555---------------------------55555555-|
A|-5555555555555555-22222222-33333333-5555555555555555-22222222-33333333-|
E|-3333333333333333-00000000----------3333333333333333-00000000----------|
   pm....................................................................	

e|-----------------|
B|-----------------|
G|-----------------|
D|-4---4x5-----555-|
A|-2---2x3-----333-|
E|-----------------|
("I'll find someone new...")

Solo  

Guitar 1:
e|-3/10--8\7--8----15----14-12-|
B|-------------8---------------|
G|--------------------12-------|
D|-----------------------------|
A|-----------------------------|
E|-----------------------------|

e|-------15-------15----15------15-------------15\-|
B|-12-13-15-13-12----12----13---15--12\10/12---13\-|
G|---------------------------12-----12\11/12-------|
D|-------------------------------------------------|
A|-------------------------------------------------|
E|-------------------------------------------------|

Guitar 2:
e|-------------------------------------|
B|-------------------------------------|
G|-------------------------------------| (2x during solo)
D|----------------------------55555555|
A|-55555555-55555555-22222222-33333333-|
E|-33333333-22222222-00000000----------|

Bridge

Guitar 1:
  Measure 1		  Measure 2
e|-----------3---0-|----------------------------|
B|-----------0---1-|----------------------------|
G|-----------0---0-|----------------------------|
D|-99---77---0---2-|-99---77---5555555555555555-|
A|-77---55---2---3-|-77---55---3333333333333333-|
E|-----------3---0-|----------------------------|
		(clean)

Guitar 2 (Measure 2):
e|------3-2-2------------3-2-2-------|
B|------------3-3-5------------3-3-5-|
G|-----------------------------------| (Guitar 1 in parentheses)
D|-(99)-------------(77)-------------|
A|-(77)-------------(55)-------------|
E|-----------------------------------|

Outro (first the solo is played over the chorus, then this & fade)
e|----------------12-10-|
B|-12-12-12-13-12-------|
G|----------------------|
D|----------------------|
A|----------------------|
E|----------------------|
Comments