All American Rejects - Swing Swing Chords & Tabs

 

Swing Swing Chords & Tabs

All American Rejects Chords & Tabs

Version: 8 Type: Bass Tab 0 ratings
1 star 2 stars 3 stars 4 stars 5 stars
comments

Swing Swing Bass Tab

   
====================
From            : SonsBitchBass
Artist          : All American Rejects
Bass Performance: Swing, Swing
Comments:       : listen to song for timing and rhythm
                  on chorus, last note is 0 on odd number times, 5 on
even
---
Strings: E ,A ,D ,G
Symbols explanations:
  H: hammer on  P: pull off
  +: slap       .: pop
  \: slide up   /: slide down
  --x~~x~~x: triplets
====================

   Rest through organ riff

|  Intro
G ----------------------------------------------------------------|
D ----------------------------------------------------------------|
A ------------------------5-5-5-5-5-5-5-5---------------------3-3-|
E --10/3-3-3-3-3-3-3-3-----------------------0-0-0-0-0-0-0-0------|
>
|
G ---------------|
D ---------------|
A --3-3-3-3-3-0--|
E ---------------|
>

|    Chorus
G --------------------------------------------------------------|
D --------------------------------------------------------------|
A ---------------------5-5-5-5-5-5-5-5----------------------3-3-|
E --3-3-3-3-3-3-3-3-----------------------0-0-0-0-0-0-0-0-------|
>
|
G ---------------|
D ---------------|
A --3-3-3-3-3-0--|
E ---------------|
>
[ Tab from: http://www.guitartabs.cc/tabs/a/all_american_rejects/swing_swing_btab_ver_8.html ]
|   Verse
G --------------------------------------------------------|
D --------------------------------------------------------|
A ---------------------------------------------------3--3-|
E --3-3-3-3-3-3-3-3-3-3-3-3-3-3-3-3-0-0-0-0-0-0-0-0-------|
>
|
G ---------------|
D ---------------|
A --3-3-3-3-3-0--|
E ---------------|
>

|   Pre-Chorus
G -----------------------|
D -----------------------|
A --2----3------5--5--7--|
E -----------------------|
>

|  Bridge
G -----------------------------------------------------------------|
D -----------------------------------------------------------------|
A ---------5-5-------------5-5-----3-3-3-3-3-3-3-3-3-3-3-3-3-3-3-5-|
E -3-3------------3-3----------------------------------------------|
>

|  Outro
G ---------------------------------------------------------------|
D ---------------------------------------------------------------|
A ---------------------5-5-5-5-5-5-5-5-----------------------3-3-|
E --3-3-3-3-3-3-3-3-----------------------0-0-0-0-0-0-0-0--------|
>
|
G ---------------|
D ---------------|
A --3-3-3-0-3-5--| to fade out
E ---------------|

Order:

Intro
Chorus x2
Verse x4
Pre-Chorus x1
Chorus x2
Verse x4
Pre-Chorus x1
Chorus x4 (Guitar Solo)
Bridge x1
Outro

Great band, great song....this is the first tab of this song that I know of, and I am fairly sure that is 
correct.
Comments