All American Rejects - Swing Swing Chords & Tabs

 

Swing Swing Chords & Tabs

All American Rejects Chords & Tabs

Version: 5 Type: Bass Tab 0 ratings
1 star 2 stars 3 stars 4 stars 5 stars
comments

Swing Swing Bass Tab

intro
G ---------------------------------------------------------------------------
D----------------------------------------------------------------------------
A--------------55555555----------33333333----------55555555----------33333333
E--5/33333333-----------00000000----------33333333----------00000000---------

G----------------------------------------------------------------------------
D----------------------------------------------------------------------------
A----------------------------33333333---------------------------33333333-----
E--3333333333333333-00000000----------3333333333333333-00000000--------------
play this four times
[ Tab from: http://www.guitartabs.cc/tabs/a/all_american_rejects/swing_swing_btab_ver_5.html ]
G--------------
D--------------
A------3---3333
E-3------------
"I'll find some one new"

then play the intro again

G-----------------------------------------------------------------------------
D-----------------------------------------------------------------------------
A----------------------------33333333----------------------------33333333-----
E--3333333333333333-00000000----------3333333333333333-00000000---------------
play four times again

G------------
D------------
A------3-3333
E-3----------

play the intro again

G----------------------------------------
D----------------------------------------
A-----33--------33-------3333333333333333
E--33--------33--------------------------
"Carry me.....You thought your problems were gone"

then play the intro twice again
Comments