All American Rejects - Swing Swing Chords & Tabs

 

Swing Swing Chords & Tabs

All American Rejects Chords & Tabs

Version: 3 Type: Bass Tab 0 ratings
1 star 2 stars 3 stars 4 stars 5 stars
comments

Swing Swing Bass Tab

   
-------------------------------------------------------------------------------
			     Swing Swing - All - American Rejects
-------------------------------------------------------------------------------

Artist: All - American Rejects
Song title: Swing Swing
Off The albulm: All- American Rejects
Tabbed By : Zero is Great man
Tuning: Standard :EADG

Intro:(Organ plays, then guitar, then)
G|----------------------------------------------------------------------|
D|----------------------------------------------------------------------|
A|------------------------------------------------------3-3-3-3-3-3-3-3-|
E|-3-3-3-3-3-3-3-3-3--2-2-2-2-2-2-2-2--0-0-0-0-0-0-0-0------------------|

Verse 1: "Dreams swiftly come and go, I'm dreaming of her"
G|-----------------------------------------------------------|
D|-----------------------------------------------------------|
A|-------------------------------------------3-3-3-3-3-3-3-3-|(x2)
E|-3-3-3-3-3-3-3-3-3-3-3-3--0-0-0-0-0-0-0-0------------------|

Verse part 2: "Did you think that I would cry, on the phone?"
G|-----------------------------------------------------------|
D|-----------------------------------------------------------|
A|-------------------------------------------3-3-3-3-3-3-3-3-|(x2)
E|-3-3-3-3-3-3-3-3-3-3-3-3--0-0-0-0-0-0-0-0------------------|

Pre - Chorus: "I'll find someone new."
G|-------------------|
D|------2-2----------|
A|-----------3-3-3-3-|
E|-3-3---------------|
[ Tab from: http://www.guitartabs.cc/tabs/a/all_american_rejects/swing_swing_btab_ver_3.html ]
Chorus Part 1: 
"Swing, Swing, Swing from the taples of, my heart is crushed by a formal love."
G|--------------------------------------------------------------------|
D|--------------------------------------------------------------------|
A|----------------------------------------------------3-3-3-3-3-3-3-3-|
E|-3-3-3-3-3-3-3-3--2-2-2-2-2-2-2-2--0-0-0-0-0-0-0-0------------------|

Chorus Part 2:
"Can you help me find a way to carry on again?"
G|-0-0-0-0-0-0-0-0------------------------------------5-5-5-5-5-5-5-5-|
D|------------------4-4-4-4-4-4-4-4--2-2-2-2-2-2-2-2------------------|
A|--------------------------------------------------------------------|
E|--------------------------------------------------------------------|

Verse part 1 x 2
verse part 2 x 2
Pre - chorus
Chorus part 1
Chorus part 2
Guitar solo: (Bass Plays chorus)

Bridge part 1: 
"Carry me....  You said your problems were gone.... Carry me...
G|--------------------------------------------------------------|
D|--------------------------------------------------------------|
A|--------------------------------------------------------------|
E|-3-3-2---------------------------------------------3-3--2-----|
                |--Organ part-----------------|

Bridge part 2:
"Away, away, away...."
G|------------------5-5-5-5-5-5-5-5-|
D|-2-2-2-2-2-2-2-2------------------|
A|----------------------------------|
E|----------------------------------|

Chorus part 1
Chorus part 2
Chorus part 1
Chorus part 2

Outro:
G|-----------------|
D|-----------------|
A|-3-3-3-3-3-3-3-3-|
E|-----------------|


| /  slide up
| \  slide down
| h  hammer-on
| p  pull-off
| ~  vibrato
| +  harmonic
| x  Mute note

That's all there is too it, Feel free to comment of correct, later, peace.
===============================================================================
Comments