All-american Rejects - Stab My Back Chords & Tabs

 

Stab My Back Chords & Tabs

All-american Rejects Chords & Tabs

Version: 1 Type: Tab 0 ratings
1 star 2 stars 3 stars 4 stars 5 stars
comments

Stab My Back Tab

   
All-American Rejects Rock. So does MoneyFruit.


Intro
e|-----------------------------------------------------------------------|
B|-------------------------------3-3-3-3-3----3-3-3----------------------|
G|-4-4-4--4--4----4-4-4-5-4-4----4-4-4-4-4----------5-4-4----------------|
D|-5-5-5--5--5----5-5-5-5-5-5----5-5-5-5-5-------------------------------|
A|-3-3-3--3--3----3-3-3-3-3-3----x-x-x-x-x-------------------------------|
E|-------------------------------3-3-3-3-3-------------------------------|

e|-----------------------------|
B|-----------------------------|
G|-4-4-4--4--4----4-4-4-5-4-4--|
D|-5-5-5--5--5----5-5-5-5-5-5--|
A|-3-3-3--3--3----3-3-3-3-3-3--|
E|-----------------------------|

Verse:
e|-----------------------------------------------------------------|
B|-----------------------------------------------------------------|
G|-----------------7-7-7-7-7-7-7-7-5-5-5-5-5-5-5-5-----------------|
D|-5-5-5-5-5-5-5-5-7-7-7-7-7-7-7-7-5-5-5-5-5-5-5-5-2-2-2-2-2-2-2-2-| play 2X
A|-5-5-5-5-5-5-5-5-5-5-5-5-5-5-5-5-3-3-3-3-3-3-3-3-2-2-2-2-2-2-2-2-|
E|-3-3-3-3-3-3-3-3---------------------------------0-0-0-0-0-0-0-0-|

e|----------------------------|
B|-------1----1------0-----0--|
G|-----0----0------2----2-----|
D|---2-----------0------------|
A|-0-----------2--------------|
E|----------------------------|

Chorus:
e|-----------------------------------------------------------------|
B|-----------------------------------------------------------------|
G|-5-5-5-5-5-5-5-5--2-2-2-2-2-2-2-2--------------------------------|
D|-5-5-5-5-5-5-5-5--2-2-2-2-2-2-2-2---2-2-2-2--2--2---2-2-2-2--2--2| 2x
A|-3-3-3-3-3-3-3-3--0-0-0-0-0-0-0-0---2-2-2-2--2--2---2-2-2-2--2--2|
E|------------------------------------0-0-0-0--0--0---0-0-0-0--0--0|

e|-----------------------------------------------------------------------|
B|-----------------------------------------------------------------------|
G|--5-5-5-5-5-5-5-5--2-2-2-2-2-2-2-2-------------------------------------|
D|--5-5-5-5-5-5-5-5--2-2-2-2-2-2-2-2---2-2-2-2-2-2-2-2--5-5-5-5-5-5-5-5--|2x
A|--3-3-3-3-3-3-3-3--0-0-0-0-0-0-0-0---2-2-2-2-2-2-2-2--5-5-5-5-5-5-5-5--|
E|-------------------------------------0-0-0-0-0-0-0-0--3-3-3-3-3-3-3-3--|

Intro:
e|-----------------------------|
B|-----------------------------|
G|-4-4-4--4--4----4-4-4-5-4-4--|
D|-5-5-5--5--5----5-5-5-5-5-5--|
A|-3-3-3--3--3----3-3-3-3-3-3--|
E|-----------------------------|

Verse:
e|-----------------------------------------------------------------|
B|-----------------------------------------------------------------|
G|-----------------7-7-7-7-7-7-7-7-5-5-5-5-5-5-5-5-----------------|
D|-5-5-5-5-5-5-5-5-7-7-7-7-7-7-7-7-5-5-5-5-5-5-5-5-2-2-2-2-2-2-2-2-| 2x
A|-5-5-5-5-5-5-5-5-5-5-5-5-5-5-5-5-3-3-3-3-3-3-3-3-2-2-2-2-2-2-2-2-|
E|-3-3-3-3-3-3-3-3---------------------------------0-0-0-0-0-0-0-0-|

e|----------------------------|
B|-------1----1------0-----0--|
G|-----0----0------2----2-----|
D|---2-----------0------------|
A|-0-----------2--------------|
E|----------------------------|
[ Tab from: http://www.guitartabs.cc/tabs/a/all_american_rejects/stab_my_back_tab.html ]
Chorus:
e|-----------------------------------------------------------------|
B|-----------------------------------------------------------------|
G|-5-5-5-5-5-5-5-5--2-2-2-2-2-2-2-2--------------------------------|
D|-5-5-5-5-5-5-5-5--2-2-2-2-2-2-2-2---2-2-2-2--2--2---2-2-2-2--2--2| 2x
A|-3-3-3-3-3-3-3-3--0-0-0-0-0-0-0-0---2-2-2-2--2--2---2-2-2-2--2--2|
E|------------------------------------0-0-0-0--0--0---0-0-0-0--0--0|

Guitar 1: plays while solo
e|-----------------------------------------------------------------------|
B|-----------------------------------------------------------------------|
G|--5-5-5-5-5-5-5-5--2-2-2-2-2-2-2-2-------------------------------------|
D|--5-5-5-5-5-5-5-5--2-2-2-2-2-2-2-2---2-2-2-2-2-2-2-2--5-5-5-5-5-5-5-5--|5x
A|--3-3-3-3-3-3-3-3--0-0-0-0-0-0-0-0---2-2-2-2-2-2-2-2--5-5-5-5-5-5-5-5--|
E|-------------------------------------0-0-0-0-0-0-0-0--3-3-3-3-3-3-3-3--|


Guitar 2 SOLO:
e|-15--14--------------------14--15--14------21--20--17-15-14----15--14-------15--17--14--15--17--15--14------|
B|---------15-------------15-------------15------------------15---------15------------------------------15--17|
G|------------14--16--16---------------------------------------------------14---------------------------------|
D|------------------------------------------------------------------------------------------------------------|
A|------------------------------------------------------------------------------------------------------------|
E|------------------------------------------------------------------------------------------------------------|
Break Down:
e|----------------------------------------|
B|----------------------------------------|
G|-----------------7-7--5-5-5-5-5-5--7-7--|   play 2X
D|--2-2-2-2-2-2-2--7-7--5-5-5-5-5-5--7-7--|
A|--2-2-2-2-2-2-2--5-5--3-3-3-3-3-3--5-5--|
E|--0-0-0-0-0-0-0--5-5--3-3-3-3-3-3--5-5--|

Intro:
e|-----------------------------|
B|-----------------------------|
G|-4-4-4--4--4----4-4-4-5-4-4--|
D|-5-5-5--5--5----5-5-5-5-5-5--|
A|-3-3-3--3--3----3-3-3-3-3-3--|
E|-----------------------------|

Chorus:
e|------------------------------------------------------------------|
B|------------------------------------------------------------------|
G|--5-5-5-5-5-5-5-5--2-2-2-2-2-2-2-2--------------------------------|
D|--5-5-5-5-5-5-5-5--2-2-2-2-2-2-2-2---2-2-2-2--2--2---2-2-2-2--2--2|
A|--3-3-3-3-3-3-3-3--0-0-0-0-0-0-0-0---2-2-2-2--2--2---2-2-2-2--2--2|
E|-------------------------------------0-0-0-0--0--0---0-0-0-0--0--0|

Corus:
e|-----------------------------------------------------------------------|
B|-----------------------------------------------------------------------|
G|--5-5-5-5-5-5-5-5--2-2-2-2-2-2-2-2-------------------------------------|
D|--5-5-5-5-5-5-5-5--2-2-2-2-2-2-2-2---2-2-2-2-2-2-2-2--5-5-5-5-5-5-5-5--|
A|--3-3-3-3-3-3-3-3--0-0-0-0-0-0-0-0---2-2-2-2-2-2-2-2--5-5-5-5-5-5-5-5--|
E|-------------------------------------0-0-0-0-0-0-0-0--3-3-3-3-3-3-3-3--|

             ^^PLAY THE SOLO OVER THIS AGAIN^^


Intro:
e|-----------------------------|
B|-----------------------------|
G|-4-4-4--4--4----4-4-4-5-4-4--|
D|-5-5-5--5--5----5-5-5-5-5-5--|
A|-3-3-3--3--3----3-3-3-3-3-3--|
E|-----------------------------|
Comments