All-american Rejects - One More Sad Song Chords & Tabs

 

One More Sad Song Chords & Tabs

All-american Rejects Chords & Tabs

Version: 3 Type: Tab 0 ratings
1 star 2 stars 3 stars 4 stars 5 stars
comments

One More Sad Song Tab

   
artist: the all-american rejects
song: one more sad song
album: selftitled
tuning: standard (e,A,D,G,B,e)


guitar 1
e-6666-8888-10101010-11111111-5555-8888-10101010-11111111---10-11----10-11-|
B--------------------------------------------------------888-----666-------|
G--------------------------------------------------------------------------|
D--------------------------------------------------------------------------|
A--------------------------------------------------------------------------|
E--------------------------------------------------------------------------|
[ Tab from: http://www.guitartabs.cc/tabs/a/all_american_rejects/one_more_sad_song_tab_ver_3.html ]
e-6666-8888-10101010-1111------------------------------------------------|
B------------------------------------------------------------------------|
G------------------------------------------------------------------------|
D------------------------------------------------------------------------|
A------------------------------------------------------------------------|
E------------------------------------------------------------------------|
repeat that 2x

guitar 2
e--------------------------------------------------------------------------|    2x
B--------------------------------------------------------------------------|
G----------xx-6(16x)-xx-7(5x)-xx-9(5x)-------------------------------------|
Dxx-7(16x)-xx-6------xx-7------xx-9------xx-7(16x)-------------------------|
Axx-7------xx-4------xx-5------xx-7------xx-7------------------------------|
Exx-5------------------------------------xx-5------------------------------|

I'm pretty sure this is right
if you have any problems make another
Comments