All-american Rejects - One More Sad Song Chords & Tabs

 

One More Sad Song Chords & Tabs

All-american Rejects Chords & Tabs

Version: 1 Type: Bass Tab 0 ratings
1 star 2 stars 3 stars 4 stars 5 stars
comments

One More Sad Song Bass Tab

   
-------------------------------------------------------------------------------
	        One More Sad Song - The All-american Rejects
-------------------------------------------------------------------------------

Tabbed By : Spartan101
e-mail: www.zpro@sbcglobal.net

Tuning: Standard

Intro
G|-------------------------------------------------------------------------|
D|-------------------------------------------------------------------------|
A|-5555555555555555------------------2222222222222222-5555555555555555-----|
E|------------------4444444444444444---------------------------------------|
(continued)
G|-------------------------------------------------------------------------|
D|-------------------------------------------------------------------------|
A|--------------------------------------------------------999977777777-----|
E|-5555555555555555-5555555555555555-4444444444444444-2222-----------------|
(continued)
G|-------------------------------------------------------------------------|
D|-------------------------------------------------------------------------|
A|-------------------------------------------------------------------------|
E|-5555555555555-7-9-5~----------------------------------------------------|
[ Tab from: http://www.guitartabs.cc/tabs/a/all_american_rejects/one_more_sad_song_btab.html ]
Verse
G|-------------------------------------------------------------------------|
D|-------------------------------------------------------------------------|
A|-----------------------------------2222222222222222-5555555555555555-----|
E|-5555555555555555-4444444444444444---------------------------------------|
(continued)
G|-----------------|
D|-----------------|
A|-555555555555----| Immediately go to prechorus
E|-----------------|

Prechorus
G|----------------------------------------------------------|
D|----------------------------------------------------------|
A|-----55--00--77------------55555555-22222222-55555555-00\-|
E|-22---------------22222222--------------------------------|

Chorus
G|--r----------------------------------------------------------------------|
D|--e----------------------------------------------------------------------|
A|--s-------------------------------55-------------------------------------|
E|--t-----5555555555555555-22222222----------------------------------------|

Intro (play this after the SECOND set of 0s and then go to Verse)
G|--------------------|
D|--------------------|(Only play 8 0s on the last set when doing the verse)
A|-1212121212121212---|(They are 12s not 1s and 2s)
E|--------------------|

Verse 
Prechorus
Chorus
Bridge(repeat verse x4)

Outro 
G|-------------------------------------------------------------------------|
D|-------------------------------------------------------------------------|
A|---------------------------55555555---------------------------5----------|
E|-5555555555555555-22222222----------5555555555555555-22222222------------|


| /  slide up
| \  slide down
| h  hammer-on
| p  pull-off
| ~  vibrato
| +  harmonic
| x  Mute note
===============================================================================
Comments