All-american Rejects - Night Drive Chords & Tabs

 

Night Drive Chords & Tabs

All-american Rejects Chords & Tabs

Version: 2 Type: Tab

Night Drive Tab

   
Song: Night Drive
Artist: The All-American Rejects
Album: Move Along
Tabbed by: julioman

i was really disappointed that no one had tabbed this song yet, so I gave it a try. I
it's not perfect, but try to enjoy it.

.=palm mute

Intro: (Lots of distortion)
E|-----------------------------|
B|---------------66-xxx--------|
G|-77-xxx-22-xxx-55-xxx-55-xxx-|
D|-77-xxx-22-xxx-33-xxx-55-xxx-|
A|-55-xxx-00-xxx--------33-xxx-|
E|-----------------------------|

0:12
E|-------------------------------------------|
B|-------------------------------------------|
G|---------------------5-5--555--------------|     x2
D|-7-7--777--2-2--222--3-3--333--5-5-555-----|
A|-7-7--777--2-2--222--3-3--333--5-5-555-----|
E|-5-5--555--0-0--000------------3-3-333-----|

0:28 (In the background)
E|----5-----3-----3-5-0----------------------|
B|--5-----5-----5----------------------------|
G|-5-5---4-5---4-4---------------------------|     x2
D|-------------------------------------------|
A|-------------------------------------------|
E|-------------------------------------------|

0:41 (I'm not sure how many times to play each note, just play however many sound right 
you)
E|---------------------------------------------------------|
B|---------------------------------------------------------|
G|---------------------555555555555------------------------|
D|-7777777777722222222225555555555555555555555-------------|    x2
A|-7777777777722222222223333333333335555555555-------------|
E|-555555555550000000000-----------33333333333-------------|
PM ...........................................

0:53
E|--------x-------|
B|--------x-------|
G|-x-x-xx-x-------|
D|-x-x-xx-x-------|
A|-x-x-xx-x-------|
E|--------x-------|


0:56
E|-------------------------------------------|
B|-------------------------------------------|
G|---------------------5-5--555--------------|     x2
D|-7-7--777--2-2--222--3-3--333--5-5-555-----|
A|-7-7--777--2-2--222--3-3--333--5-5-555-----|
E|-5-5--555--0-0--000------------3-3-333-----|
[ Tab from: http://www.guitartabs.cc/tabs/a/all_american_rejects/night_drive_tab_ver_2.html ]
1:09 (I couldn't quite figure this part out)
E|-----------------------------------|
B|-----------------------------------|
G|10-101010--7-777--9-999--10-101010-|
D|10-101010--7-777--9-999--10-101010-|
A|-8-8-8-8---5-555--7-777---8-8-8-8--|
E|-----------------------------------|

1:15 (once again, play the number of times that sounds right to you)
E|---------------------------------------------------------|
B|---------------------------------------------------------|
G|----------------------55555555555------------------------|
D|-7777777777722222222225555555555555555555555-------------|    x2
A|-7777777777722222222223333333333335555555555-------------|
E|-555555555550000000000-----------33333333333-------------|
PM ...........................................

1:42
E|-------------------------------------------|
B|-------------------------------------------|
G|---------------------5-5--555--------------|     x4
D|-7-7--777--2-2--222--5-5--555--5-5-555-----|
A|-7-7--777--2-2--222--3-3--333--5-5-555-----|
E|-5-5--555--0-0--000------------3-3-333-----|

2:12 (possibly with a slight delay effect)
E|----5-----3-----3-5-0----------------------|
B|--5-----5-----5----------------------------|
G|-5-5---4-5---4-4---------------------------|
D|-------------------------------------------|
A|-------------------------------------------|
E|-------------------------------------------|

2:24
E|-----------------------------------|
B|-----------------------------------|
G|10-101010--7-777--9-999--10-101010-|
D|10-101010--7-777--9-999--10-101010-|
A|-8-8-8-8---5-555--7-777---8-8-8-8--|
E|-----------------------------------|

2:41
E|-----------------------------------------|            x2
B|---------------66-xxx--------------------|
G|-77-xxx-22-xxx-55-xxx-55-xxx-------------|
D|-77-xxx-22-xxx-33-xxx-55-xxx-------------|
A|-55-xxx-00-xxx--------33-xxx-------------|
E|-----------------------------------------|

Outro
2:54
E|-------------------------------------------|
B|-------------------------------------------|
G|---------------------5-5--555--------------|     x5
D|-7-7--777--2-2--222--3-3--333--5-5-555-----|
A|-7-7--777--2-2--222--3-3--333--5-5-555-----|
E|-5-5--555--0-0--000------------3-3-333-----|

End on:
E|--|
B|--|
G|--|
D|-7|
A|-7|
E|-5|

Okay, I know it's not perfect, and I'll take any comments, suggestions, or comments you 
Email me at picklekid77@yahoo.com