All-american Rejects - Move Along Chords & Tabs

 

Move Along Chords & Tabs

All-american Rejects Chords & Tabs

Version: 4 Type: Tab

Move Along Tab

   
Title  Move Along
Artist- The All-American Rejects
Album  Move Along

Tabbed by: Larry A

Tuning: Half-Step Down (Eb Bb Gb Db Ab Eb)
                       (D# A# F# C# G# D#)
Guitar 1  Distortion
Guitar 2  Distortion
Guitar 3 - Clean (Piano tabbed for guitar)

 ___________________
| Intro (0:00-0:17) |
|___________________|

Guitar 1
eb| |---------------------------------|---------------------------------|
Bb| |---------------------------------|---------------------------------|
Gb| |---------------------------------|---------------------------------|
Db| |---------------------------------|---------------------------------|
Ab| |---------------------------------|---------------------------------|
Eb| |---------------------------------|---------------------------------|

Guitar 1
eb| |---------------------------------|---------------------------------|
Bb| |-9-9---9-9---9-9---9-9---9-9-9-9-|-7-7---7-7---7-7---7-7---7-7-7-7-|
Gb| |-9-9---9-9---9-9---9-9---9-9-9-9-|-8-8---8-8---8-8---8-8---8-8-8-8-|
Db| |-x-x---x-x---x-x---x-x---x-x-x-x-|-x-x---x-x---x-x---x-x---x-x-x-x-|
Ab| |-7-7---7-7---7-7---7-7---7-7-7-7-|-6-6---6-6---6-6---6-6---6-6-6-6-|
Eb| |---------------------------------|---------------------------------|

Guitar 1
eb| |---------------------------------|---------------------------------|
Bb| |-9-9---9-9---9-9---9-9---9-9-9-9-|1010--1010--1010--1010--10101010-|
Gb| |-9-9---9-9---9-9---9-9---9-9-9-9-|-9-9---9-9---9-9---9-9---9-9-9-9-|
Db| |-x-x---x-x---x-x---x-x---x-x-x-x-|-x-x---x-x---x-x---x-x---x-x-x-x-|
Ab| |-7-7---7-7---7-7---7-7---7-7-7-7-|-7-7---7-7---7-7---7-7---7-7-7-7-|
Eb| |---------------------------------|---------------------------------|

 ___________________
| Verse (0:17-0:34) |
|___________________|

Guitar 1
eb| |---------------------------------|---------------------------------|
Bb| |o9-9---9-9---9-9---9-9---9-9-9-9-|-7-7---7-7---7-7---7-7---7-7-7-7-|
Gb| |-9-9---9-9---9-9---9-9---9-9-9-9-|-8-8---8-8---8-8---8-8---8-8-8-8-|
Db| |-x-x---x-x---x-x---x-x---x-x-x-x-|-x-x---x-x---x-x---x-x---x-x-x-x-|
Ab| |o7-7---7-7---7-7---7-7---7-7-7-7-|-6-6---6-6---6-6---6-6---6-6-6-6-|
Eb| |---------------------------------|---------------------------------|
   1.       Go ahead as you             waste your day with
   2.       Another day and you've      had your fill of

Guitar 1
eb| |---------------------------------|---------------------------------|
Bb| |-5-5---5-5---5-5---5-5---5-5-4-4-|-5-5---5-5---5-5---5-5---5-5-5-5o|
Gb| |-6-6---6-6---6-6---6-6---6-6-4-4-|-6-6---6-6---6-6---6-6---6-6-6-6-|
Db| |-x-x---x-x---x-x---x-x---x-x-x-x-|-x-x---x-x---x-x---x-x---x-x-x-x-|
Ab| |-4-4---4-4---4-4---4-4---4-4-2-2-|-4-4---4-4---4-4---4-4---4-4-4-4o|
Eb| |---------------------------------|---------------------------------|
   1. thinking                when you  fall everyone stands
   2. sinking                 with the  life held in your

 ________________________
| Pre-Chorus (0:35-0:43) |
|________________________|

Guitar 1
eb| |---------------------------------|---------------------------------|
Bb| |---------------------------------|---------------------------------|
Gb| |---------------------------------|---------------------x-x-------\-|
Db| |---------------------------------|---------------------x-x-------\-|
Ab| |---------------------------------|---------------------x-x-------\-|
Eb| |---------------------------------|---------------------------------|
      hands are                  These  hands are             Speak to
      shaking cold...                   meant to hold         me

 ____________________
| Chorus (0:44-1:01) |
|____________________|

Guitar 1
eb| |---------------------------------|---------------------------------|
Bb| |o--------------------------------|---------------------------------|
Gb| |-6-6-6-6-6-6-6-6-9-9-9-9-9-9-9-9-|---------------------------------|
bD| |-6-6-6-6-6-6-6-6-9-9-9-9-9-9-9-9-|-9-9-9-9-9-9-9-9-7-7-7-7-7-7-7-7-|
Ab| |o4-4-4-4-4-4-4-4-7-7-7-7-7-7-7-7-|-9-9-9-9-9-9-9-9-7-7-7-7-7-7-7-7-|
Eb| |---------------------------------|-7-7-7-7-7-7-7-7-5-5-5-5-5-5-5-5-|
   1.         When all you got   Move   along Move      know you do     |
              to keep is strong         along like I                    |
                                                                        |
   2.         And even when your Move   along Move      make it    Move |
              hope is gone              along just to   through    along|
                                                                        |
Guitar 2                                                                |
eb| |---------------------------------|---------------------------------|
Bb| |---------------------------------|--------------------------------o|
Gb| |-9-9-9-9-9-91111-9-9-9-9-9-9-9-9-|-8-8-8-8-8-8-8-8-6-6-6-6-6-6-8-8-|
Db| |-x-x-x-x-x-x-x-x-x-x-x-x-x-x-x-x-|-x-x-x-x-x-x-x-x-x-x-x-x-x-x-x-x-|
Ab| |-7-7-7-7-7-7-9-9-7-7-7-7-7-7-7-7-|-6-6-6-6-6-6-6-6-4-4-4-4-4-4-6-6o|
Eb| |---------------------------------|---------------------------------|

 ___________________
| Verse (1:01-1:27) |
|___________________|

Guitar 1
eb| |---------------------------------|---------------------------------|
Bb| |-9-9---9-9---9-9---9-9---9-9-9-9-|-7-7---7-7---7-7---7-7---7-7-7-7-|
Gb| |-9-9---9-9---9-9---9-9---9-9-9-9-|-8-8---8-8---8-8---8-8---8-8-8-8-|
Db| |-x-x---x-x---x-x---x-x---x-x-x-x-|-x-x---x-x---x-x---x-x---x-x-x-x-|
Ab| |-7-7---7-7---7-7---7-7---7-7-7-7-|-6-6---6-6---6-6---6-6---6-6-6-6-|
Eb| |---------------------------------|---------------------------------|
                                                          Move along

Guitar 1
eb| |---------------------------------|---------------------------------|
Bb| |-9-9---9-9---9-9---9-9---9-9-9-9-|1010--1010--1010--1010--10101010-|
Gb| |-9-9---9-9---9-9---9-9---9-9-9-9-|-9-9---9-9---9-9---9-9---9-9-9-9-|
Db| |-x-x---x-x---x-x---x-x---x-x-x-x-|-x-x---x-x---x-x---x-x---x-x-x-x-|
Ab| |-7-7---7-7---7-7---7-7---7-7-7-7-|-7-7---7-7---7-7---7-7---7-7-7-7-|
Eb| |---------------------------------|---------------------------------|

Guitar 1
eb| |---------------------------------|
Bb| |---------------------------------|
Gb| |---------------------------------|
Db| |-2-2-2-2---------6-6-6-6---------|
Ab| |-2-2-2-2---------6-6-6-6---------|
Eb| |-0-0-0-0---------4-4-4-4---------|
          So a day    lost yourself
          when you've completely

Guitar 1
eb| |---------------------------------|---------------------------------|
Bb| |-5-5---5-5---5-5---5-5---5-5-4-4-|-5-5---5-5---5-5---5-5---5-5-5-5-|
Gb| |-6-6---6-6---6-6---6-6---6-6-4-4-|-6-6---6-6---6-6---6-6---6-6-6-6-|
Db| |-x-x---x-x---x-x---x-x---x-x-x-x-|-x-x---x-x---x-x---x-x---x-x-x-x-|
Ab| |-4-4---4-4---4-4---4-4---4-4-2-2-|-4-4---4-4---4-4---4-4---4-4-4-4-|
Eb| |---------------------------------|---------------------------------|
                  Could be a  Your life
                  night when  ends

Guitar 1
eb| |---------------------------------|---------------------------------|
Bb| |o9-9---9-9---9-9---9-9---9-9-9-9-|-7-7---7-7---7-7---7-7---7-7-7-7-|
Gb| |-9-9---9-9---9-9---9-9---9-9-9-9-|-8-8---8-8---8-8---8-8---8-8-8-8-|
Db| |-x-x---x-x---x-x---x-x---x-x-x-x-|-x-x---x-x---x-x---x-x---x-x-x-x-|
Ab| |o7-7---7-7---7-7---7-7---7-7-7-7-|-6-6---6-6---6-6---6-6---6-6-6-6-|
Eb| |---------------------------------|---------------------------------|
            Such a heart that will      lead you to

Guitar 1
eb| |---------------------------------|---------------------------------|
Bb| |-5-5---5-5---5-5---5-5---5-5-4-4-|-5-5---5-5---5-5---5-5---5-5-5-5o|
Gb| |-6-6---6-6---6-6---6-6---6-6-4-4-|-6-6---6-6---6-6---6-6---6-6-6-6-|
Db| |-x-x---x-x---x-x---x-x---x-x-x-x-|-x-x---x-x---x-x---x-x---x-x-x-x-|
Ab| |-4-4---4-4---4-4---4-4---4-4-2-2-|-4-4---4-4---4-4---4-4---4-4-4-4o|
Eb| |---------------------------------|---------------------------------|
      Deceiving               All the   pain held in your

 ________________________
| Pre-Chorus (1:27-1:35) |
|________________________|
[ Tab from: http://www.guitartabs.cc/tabs/a/all_american_rejects/move_along_tab_ver_4.html ]
Guitar 1
eb| |--------------------------12-----|---------------------------------|
Bb| |-------------------910p9----10-9-|---------------------------------|
Gb| |-------------------------9-------|-9-------------------9~9~------\-|
Db| |---------------------------------|---------------------9-9~------\-|
Ab| |---------------------------------|---------------------7-7~------\-|
Eb| |---------------------------------|---------------------------------|
      Hands are                         Your hands are        Speak to  |
      shaking cold                      mine to hold                me  |
                                                                        |
Guitar 2                                                                |
eb| |--------17------16---------------|---------------------------------|
Bb| |---------------------------------|---------------------------------|
Gb| |---------------------------------|---------------------9-9~------\-|
Db| |---------------------------------|---------------------9-9~------\-|
Ab| |---------------------------------|---------------------7-7~------\-|
Eb| |---------------------------------|---------------------------------|
             TP      TP

 ____________________
| Chorus (1:36-1:53) |
|____________________|

Guitar 1
eb| |---------------------------------|---------------------------------|
Bb| |o--------------------------------|---------------------------------|
Gb| |-6-6-6-6-6-6-6-6-9-9-9-9-9-9-9-9-|---------------------------------|
bD| |-6-6-6-6-6-6-6-6-9-9-9-9-9-9-9-9-|-9-9-9-9-9-9-9-9-7-7-7-7-7-7-7-7-|
Ab| |o4-4-4-4-4-4-4-4-7-7-7-7-7-7-7-7-|-9-9-9-9-9-9-9-9-7-7-7-7-7-7-7-7-|
Eb| |---------------------------------|-7-7-7-7-7-7-7-7-5-5-5-5-5-5-5-5-|
   1.         When all you got   Move   along Move      know you do     |
              to keep is strong         along like I                    |
                                                                        |
   2.         And even when your Move   along Move      make it    Move |
              hope is gone              along just to   through    along|
                                                                        |
Guitar 2                                                                |
eb| |---------------------------------|---------------------------------|
Bb| |---------------------------------|--------------------------------o|
Gb| |-9-9-9-9-9-91111-9-9-9-9-9-9-9-9-|-8-8-8-8-8-8-8-8-6-6-6-6-6-6-8-8-|
Db| |-x-x-x-x-x-x-x-x-x-x-x-x-x-x-x-x-|-x-x-x-x-x-x-x-x-x-x-x-x-x-x-x-x-|
Ab| |-7-7-7-7-7-7-9-9-7-7-7-7-7-7-7-7-|-6-6-6-6-6-6-6-6-4-4-4-4-4-4-6-6o|
Eb| |---------------------------------|---------------------------------|

 ____________________
| Bridge (1:54-2:28) |
|____________________|

Guitar 1
eb| |---------------------------------|---------------------------------|
Bb| |o9-9---9-9---9-9---9-9---9-9-9-9-|-7-7---7-7---7-7---7-7---7-7-7-7-|
Gb| |-9-9---9-9---9-9---9-9---9-9-9-9-|-8-8---8-8---8-8---8-8---8-8-8-8-|
Db| |-x-x---x-x---x-x---x-x---x-x-x-x-|-x-x---x-x---x-x---x-x---x-x-x-x-|
Ab| |o7-7---7-7---7-7---7-7---7-7-7-7-|-6-6---6-6---6-6---6-6---6-6-6-6-|
Eb| |---------------------------------|---------------------------------|
   1. Go on...    Go on...    Go on...  Go on...
   2. Go on...    Go on...    Go on...  Go on...

Guitar 1
eb| |---------------------------------|---------------------------------|
Bb| |-9-9---9-9---9-9---9-9---9-9-9-9-|1010--1010--1010--1010--10101010o|
Gb| |-9-9---9-9---9-9---9-9---9-9-9-9-|-9-9---9-9---9-9---9-9---9-9-9-9-|
Db| |-x-x---x-x---x-x---x-x---x-x-x-x-|-x-x---x-x---x-x---x-x---x-x-x-x-|
Ab| |-7-7---7-7---7-7---7-7---7-7-7-7-|-7-7---7-7---7-7---7-7---7-7-7-7o|
Eb| |---------------------------------|---------------------------------|
   1. When everything is                wrong             We move along
   2. When everything is                wrong             We move along

Guitar 1
eb| |---------------------------------|---------------------------------|
Bb| |---------------------------------|---------------------------------|
Gb| |---------------------------------|---------------------------------|
Db| |-9~------------------------------|-9~------------------------------|
Ab| |-9~------------------------------|-9~------------------------------|
Eb| |-7~------------------------------|-7~------------------------------|
      Along...                          Along...
                   (Along...)                        (Along...)

Guitar 1
eb| |---------------------------------|---------------------------------|
Bb| |---------------------------------|---------------------------------|
Gb| |---------------------------------|---------------------------------|
Db| |-9~------------------------------|-9~------------------9-9-9-9-9-9-|
Ab| |-9~------------------------------|-9~------------------9-9-9-9-9-9-|
Eb| |-7~------------------------------|-7~------------------7-7-7-7-7-7-|
      Along...                          Along...
                   (Along...)

 _______________________
| Interlude (2:28-2:46) |
|_______________________|

Guitar 3
eb| |-----------------------------4---|---------------------------------|
Bb| |-9---------------9-----7-----5---|-7----------------------12--10---|
Gb| |-9---------------6-----------6---|-8-----------------------9---9---|
Db| |-9---------------6-----------6---|-9-----------------------9---7---|
Ab| |---------------------------------|-------------------------7---7---|
Eb| |---------------------------------|(7)---------(7)----------5-------|
              When all you got   Move   along Move      know you do
              to keep is strong         along like I

Guitar 3
eb| |-----------------------------4---|---------------------------------|
Bb| |-9-------------7-------------5---|-7-----------7---5---------------|
Gb| |-9---------------------1-----6---|-8-----------8---6---------------|
Db| |-6---------------------2-----6---|-9-----------9---7---------------|
Ab| |-7---------------0-----2---------|---------------------------------|
Eb| |-----------------------0---------|(7)----------x---x---------------|
              And even when your Move   along Move      make it
              hope is gone              along just to   through

Guitar 1 & 2
eb| |---------------------------------|---------------------------------|
Bb| |---------------------------------|---------------------------------|
Gb| |---------------------------------|-------------------------6-6-6-6-|
Db| |---------------------------------|-------------------------6-6-6-6-|
Ab| |---------------------------------|-------------------------4-4-4-4-|
Eb| |---------------------------------|---------------------------------|
                                                                * * * *

 ____________________
| Chorus (2:46-3:20) |
|____________________|

Guitar 1
eb| |---------------------------------|---------------------------------|
Bb| |o--------------------------------|---------------------------------|
Gb| |-6-6-6-6-6-6-6-6-9-9-9-9-9-9-9-9-|---------------------------------|
bD| |-6-6-6-6-6-6-6-6-9-9-9-9-9-9-9-9-|-9-9-9-9-9-9-9-9-7-7-7-7-7-7-7-7-|
Ab| |o4-4-4-4-4-4-4-4-7-7-7-7-7-7-7-7-|-9-9-9-9-9-9-9-9-7-7-7-7-7-7-7-7-|
Eb| |---------------------------------|-7-7-7-7-7-7-7-7-5-5-5-5-5-5-5-5-|
   1.         When all you got   Move   along Move      know you do     |
              to keep is strong         along like I                    |
                                                                        |
   2.         And even when your Move   along Move      make it    Move |
              hope is gone              along just to   through    along|
                                                                        |
   3.         When all you got   Move   along Move      know you do     |
              to keep is strong         along like I                    |
                                                                        |
   4.         And even when your Move   along Move      make it    Move |
              hope is gone              along just to   through    along|
                                                                        |
Guitar 2                                                                |
eb| |---------------------------------|---------------------------------|
Bb| |---------------------------------|--------------------------------o|
Gb| |-9-9-9-9-9-91111-9-9-9-9-9-9-9-9-|-8-8-8-8-8-8-8-8-6-6-6-6-6-6-8-8-|
Db| |-x-x-x-x-x-x-x-x-x-x-x-x-x-x-x-x-|-x-x-x-x-x-x-x-x-x-x-x-x-x-x-x-x-|
Ab| |-7-7-7-7-7-7-9-9-7-7-7-7-7-7-7-7-|-6-6-6-6-6-6-6-6-4-4-4-4-4-4-6-6o|
Eb| |---------------------------------|---------------------------------|

 ___________________
| Outro (3:21-4:00) |
|___________________|

Guitar 1
eb| |---------------------------------|---------------------------------|
Bb| |o9-9---9-9---9-9---9-9---9-9-9-9-|-7-7---7-7---7-7---7-7---7-7-7-7-|
Gb| |-9-9---9-9---9-9---9-9---9-9-9-9-|-8-8---8-8---8-8---8-8---8-8-8-8-|
Db| |-x-x---x-x---x-x---x-x---x-x-x-x-|-x-x---x-x---x-x---x-x---x-x-x-x-|
Ab| |o7-7---7-7---7-7---7-7---7-7-7-7-|-6-6---6-6---6-6---6-6---6-6-6-6-|
Eb| |---------------------------------|---------------------------------|
   1. Go on...    Go on...    Go on...  Go on...
   2. Go on...    Go on...    Go on...  Go on...
   3. Go on...    Go on...    Go on...  Go on...
   4. Go on...    Go on...    Go on...  Go on...

Guitar 1
eb| |---------------------------------|---------------------------------|
Bb| |-9-9---9-9---9-9---9-9---9-9-9-9-|1010--1010--1010--1010--10101010o|
Gb| |-9-9---9-9---9-9---9-9---9-9-9-9-|-9-9---9-9---9-9---9-9---9-9-9-9-|
Db| |-x-x---x-x---x-x---x-x---x-x-x-x-|-x-x---x-x---x-x---x-x---x-x-x-x-|
Ab| |-7-7---7-7---7-7---7-7---7-7-7-7-|-7-7---7-7---7-7---7-7---7-7-7-7o|
Eb| |---------------------------------|---------------------------------|
   1. Write back what is                wrong             We move along
   2. Write back what is                wrong             We move along
   3. Write back what is                wrong             We move along
   4. Write back what is                wrong             We move along


 ________
| Legend |
|________|

~  - Sustain
\  - Slide down
x  - Mute
*  - Palm mute
TP - Tremolo pick
h  - Hammer-on
p  - Pull-off

 _______
| Notes |
|_______|

Update- I changed this song from Standard tuning to Eb because there is an Eb chord in there.