All-american Rejects - Move Along Chords & Tabs

 

Move Along Chords & Tabs

All-american Rejects Chords & Tabs

Version: 2 Type: Tab 0 ratings
1 star 2 stars 3 stars 4 stars 5 stars
comments

Move Along Tab

   
Intro

   Eb         Bb         Cm             Ab
E|-6-6-6-6-6---------------------------------------------------------------|
B|-8-8-8-8-8--6-6-6-6-6--8--8--8--8--8--9--9--9--9--9----------------------|
G|-8-8-8-8-8--7-7-7-7-7--8--8--8--8--8--8--8--8--8--8----------------------|
D|------------8-8-8-8-8--10-10-10-10-10-10-10-10-10-10---------------------|
A|-------------------------------------------------------------------------|
E|-------------------------------------------------------------------------|

Verse (x2)

   Eb         Gm         Cm              Cm 
E|-6-6-6-6-6--3-3-3-3-3--8--8--8--8--8---8--8--8--8--8---------------------|
B|-8-8-8-8-8--3-3-3-3-3--8--8--8--8--8---8--8--8--8--8---------------------|
G|-8-8-8-8-8--3-3-3-3-3--8--8--8--8--8---8--8--8--8--8---------------------|
D|-8-8-8-8-8--5-5-5-5-5--10-10-10-10-10--10-10-10-10-10--------------------|
A|-------------------------------------------------------------------------|
E|-------------------------------------------------------------------------|

Pre-chorus (bass only)
[ Tab from: http://www.guitartabs.cc/tabs/a/all_american_rejects/move_along_tab_ver_2.html ]
   Gm         Eb         Gm              Eb
E|-------------------------------------------------------------------------|
B|-------------------------------------------------------------------------|
G|-------------------------------------------------------------------------|
D|-------------------------------------------------------------------------|
A|------------6--------------------------6---------------------------------|
E|-3---------------------3-------------------------------------------------|

Chorus (x2)

   Cm         Eb         Bb         Ab
E|-3-3-3-3-3---------------------------------------------------------------|
B|-4-4-4-4-4---------------------------------------------------------------|
G|-5-5-5-5-5--8-8-8-8-8----------------------------------------------------|
D|-5-5-5-5-5--8-8-8-8-8--8-8-8-8-8--6-6-6-6-6------------------------------|
A|-3-3-3-3-3--6-6-6-6-6--8-8-8-8-8--6-6-6-6-6------------------------------|
E|-x-x-x-x-x-------------6-6-6-6-6--4-4-4-4-4------------------------------|

Piano (x2)

   Eb         Cm         Bb         Ab
E|-6----------8----------6----------4--------------------------------------|
B|-8----------8----------6----------4--------------------------------------|
G|-8----------8----------7----------5--------------------------------------|
D|-8----------10---------8----------6--------------------------------------|
A|-6----------10---------8----------6--------------------------------------|
E|-x----------8----------6----------4--------------------------------------|
Comments