All-american Rejects - Last Song Chords & Tabs

 

Last Song Chords & Tabs

All-american Rejects Chords & Tabs

Version: 1 Type: Tab 0 ratings
1 star 2 stars 3 stars 4 stars 5 stars
comments

Last Song Tab

Buy:Shippy
E-mail:shippys_dock@hotmail.com
[ Tab from: http://www.guitartabs.cc/tabs/a/all_american_rejects/last_song_tab.html ]
e-------------------------------------------------------------------------|
B--------1-2----------1-2----------1 2----------1-2----------1-2----------|
G------------1------------1------------1------------1------------1--------|
D---10-----------10-----------10-----------10-----------10----------------|
A-8----11------8----11------8----11------8----11------8----11-------------|
E-------------------------------------------------------------------------|

e-------------------------------------------------------------------------|
B--------1-2--------------------------------------------------------------|
G------------1------------------------------------------------------------|
D---10--------------------------------------------------------------------|
A-8----11-----------------------------------------------------------------|
E-------------------------------------------------------------------------|
Comments