All-american Rejects - Last Song Chords & Tabs

 

Last Song Chords & Tabs

All-american Rejects Chords & Tabs

Version: 1 Type: Bass Tab

Last Song Bass Tab

some of the tabs for this i have seen are hard to understand....this one
i've done is a little easyier and corrected

Song: The Last Song
Artist: The All American Rejects

Intro
G|-------------------------------------------------------------------------|
D|-------------------------------------------------------------------------|
A|--4~----4--------------------------4~----4--------------------------4~---|
E|------------6~----6-----4~----4--------------6~----6-----4~----4---------|

Verse
G|-----------------------------------------------------------|
D|-----------------------------------------------------------|
A|--4(x32)---------------------------------------------------|  
E|-------------6(x32)---4(x32)---2(x32)----------------------|

Pre Chorus
G|--------------------------------------------------------------------------|
D|--------------------------------------------------------------------------|
A|---------------------------------------4444444444444444-------------------|   x2 
E|--6666666666666666---2222222222222222-------------------4444444444444444--|
[ Tab from: http://www.guitartabs.cc/tabs/a/all_american_rejects/last_song_btab.html ]
Chorus
G|------------------------------------------------------|
D|------------------------------------------------------|
A|--4(x32)----------------------------------------------|   x2
E|-----------2(x32)---------7(x32)---------4(x32)-------|

Verse (Slightly Different)
G|-----------------------------------------------------------|
D|-----------------------------------------------------------|
A|--4(x32)---------------------------------------------------|  
E|-------------6(x32)----------4(x32)------------------------|

G|-------------------------------------------------------------------|
D|-------------------------------------------------------------------|
A|--4(x32)-----------------------------------------------------------|
E|------------6(x32)-----------4(x32)---2(x32)-----------------------|

Pre Chorus x2
Chorus x2


Interlude (No bass on first part)
G|---------------------------------------------|
D|---------------------------------------------|
A|--44444444---66666666---99999999---44444444--|
E|---------------------------------------------|

Chorus x2