All-american Rejects - Girl Of My Dreams Chords & Tabs

 

Girl Of My Dreams Chords & Tabs

All-american Rejects Chords & Tabs

Version: 1 Type: Bass Tab 0 ratings
1 star 2 stars 3 stars 4 stars 5 stars
comments

Girl Of My Dreams Bass Tab

   
-----------------------------------------------------------------
Girl of My Dreams - the All-American Rejects
-----------------------------------------------------------------

Tabbed By : Daniel T
e-mail: just leave comments

Tuning: Standard (EADG)

This is a great song to play with those of you who have a crush on someone are in a
relationship. I just started listening to the All-American Rejects last night and
they are great!

Intro:
G|------------------------|
D|-----------------0------|
A|-0--2-4--0--2-4-----4-0-|
E|------------------------|

Intro Fill:
G|-----------------|
D|-----------------|
A|-5-5-5-5-5-5-5-5-|
E|-----------------|

Verse:
G|---------------------|
D|------2222------0000-|
A|-0000------4444------|
E|---------------------|

Pre-Chorus:
G|------------------------------|
D|--------0~------------0~---2~-|
A|------------------------------|
E|-2~------------2~-------------|
[ Tab from: http://www.guitartabs.cc/tabs/a/all_american_rejects/girl_of_my_dreams_btab.html ]
Chorus:
G|-------------------------------------|
D|----------22222222----------00000000-|
A|-00000000----------22222222----------|
E|-------------------------------------|

G|---------------------------------------|
D|----------22222222-------0~---2~-------|
A|-00000000----------2~--------------0~--|
E|---------------------------------------|

Bridge:
G|-------------------------------------|
D|-------------------------------------|
A|-00000000----------22222222----------|
E|----------22222222----------00000000-|

G|-------------------------------------|
D|-------------------------------------|
A|-00000000----------22222222---7--7-7-|
E|----------22222222----------00-00-0--|
 
| / slide up
| \ slide down
| h hammer-on
| p pull-off
| ~ vibrato
| + harmonic
| x Mute note

Order:
Intro			x2
Intro Fill		x1
Intro 			x2
Verse (as Pre-Verse)	x2
Verse			x4
Intro			x2
Verse			x4
Pre-Chorus		x1
Chorus			x1
Verse (as Pre-Verse)	x2
Verse 			x4
Pre-Chorus		x1
Chorus 			x1
Bridge (no lyrics)	x1
Bridge (with lyrics)	x2
Chorus			x2
First time don't ring out but keep playing eighths.
Chorus until fades out.
Comments