All-american Rejects - Drive Away Chords & Tabs

 

Drive Away Chords & Tabs

All-american Rejects Chords & Tabs

Version: 1 Type: Bass Tab 0 ratings
1 star 2 stars 3 stars 4 stars 5 stars
comments

Drive Away Bass Tab

   
-------------------------------------------------------------------------------
			  Drive Away - All-american Rejects
-------------------------------------------------------------------------------

Tabbed By : Spartan101
e-mail: www.zpro@sbcglobal.net

Tuning: Standard

The timing for some of these will be easy to get down if you listen to the music.
Intro (x2) The timimg isn't as tricky as it seems.
G|------------------------------------------------------|
D|------------------------------------------------------|
A|-00-xx-x77-xx-x55-xx-x55--00-xx-x77-xx-x55-xx-x5-5-5--|
E|------------------------------------------------------|

Verse (x2) Guitars continue intro while bass comes in later on with this
G|-------------------------------------|
D|-------------------------------------|
A|-------------------------77--77------|
E|-10-10-10-10-10-10-10-10-------------|

Chorus
G|-------------------------------------------------------------------------|
D|-------------------------------------------------------------------------|
A|-0000000-5555555-7777777-5555555-0000000-5555555-7777777-5--xx-0000000---|
E|-------------------------------------------------------------------------|
(continued)
G|-------------------------------------------------------------------------|
D|-------------------------------------------------------------------------|
A|-5555555-77777777777777--------------------------------------------------|
E|-------------------------------------------------------------------------|

Post Chorus
G|-------------------------------------------------------------------------|
D|-------------------------------------------------------------------------|
A|-5~--7~----------------------------------55555555555555-77777777777777---|
E|-----------55-xxxx-55-xxxx-44-xxxx-4-4-4---------------------------------|

Intro
Verse
Chorus
Post Chorus
[ Tab from: http://www.guitartabs.cc/tabs/a/all_american_rejects/drive_away_btab.html ]
Bridge
G|-------------------------------------------------------------------------|
D|-------------------------------------------------------------------------|
A|-9-9-9-9-7-7-7-7-5-5-5-5-5-5-57--9-9-9-9-7-7-7-7-5-5-5-5-5-5-5-xxxx------|
E|-------------------------------------------------------------------------|
(continued)
G|-------------------------------------------------------------------------|
D|-------------------------------------------------------------------------|
A|------------------------------------------5-5-5-5-5-5-5-77--77-----------|
E|-9-9-9-9-10-10-10-10-12-12-12-12-12-12-12--------------------------------|
(Guitars play a little bit) 
G|-------------------------------------------------------------------------|
D|-------------------------------------------------------------------------|
A|-7--xx--0000000-5555555-77777777777777-----------------------------------|
E|-------------------------------------------------------------------------|

Post Chorus(with a slight twist)
G|-------------------------------------------------------------------------|
D|-------------------------------------------------------------------------|
A|-----------------------55555555555555-9999-7777777777-xxxxxxx------------|
E|-55-xxxx-55-xxxx---------------------------------------------------------|

Outro
G|-------------------------------------------------------------------------|
D|-------------------------------------------------------------------------|
A|-----------------5555555-7777777-----------------5555999-7777777---------|
E|-5555555-4444444-----------------5555555-4444444-----------------5555555-|

G|-------------------------------------------------------------------------|
D|-------------------------------------------------------------------------|
A|---------5555555-7777777--------------599997777777-----------------------|
E|-4444444------------------5--5--4--4------------------55-----------------|

Listen to the CD and you're good to go. That is if you need to hehe.
| /  slide up
| \  slide down
| h  hammer-on
| p  pull-off
| ~  vibrato
| +  harmonic
| x  Mute note
===============================================================================
Comments