All-american Rejects - Dont Leave Me Chords & Tabs

 

Dont Leave Me Chords & Tabs

All-american Rejects Chords & Tabs

Version: 1 Type: Tab 0 ratings
1 star 2 stars 3 stars 4 stars 5 stars
comments

Dont Leave Me Tab

   
Song: Don't Leave Me
Artist: All-American Rejects
Album: (Self Titled)
Tabbed by: Eric M. (rufioyc@hotmail.com)



(This tab is only for Guitar 1.)


Intro/Verse: "You're sweet just like the sun..."                         (x2)
e|--------------------------------------------------------------------------|
B|--------------------------------------------------------------------------|
G|------------------6-666666666666666-4-4444444-6-6666666-------------------|
D|-4-44444444444444-6-666666666666666-4-4444444-6-6666666-4-444444444444444-|
A|-4-44444444444444-4-444444444444444-2-2222222-4-4444444-4-444444444444444-|
E|-2-22222222222222---------------------------------------2-222222222222222-|
pm:  ''''''''''''''   '''''''''''''''   '''''''   '''''''   '''''''''''''''


Pre-Chorus: "Will you stay..."        (x2)
e|---------------------------------------|
B|---------------------------------------|
G|-8--------9-----------------11---------|
D|-8-(x16)--9-(x16)--9--------11-(x16)---|
A|-6--------7--------9-(x16)--9----------|
E|-------------------7-------------------|
[ Tab from: http://www.guitartabs.cc/tabs/a/all_american_rejects/dont_leave_me_tab.html ]
Chorus: "Leave me once, leave me twice..."  (x2)
e|---------------------------------------------|-----|
B|---------------------------------------------|-----|
G|-4------------------4------------------------|-----|
D|-4-(x16)--2---------4-(x16)--6-------4-------|-2~--|
A|-2--------2-(x16)---2--------6-(x8)--4 (x8)--|-2~--|
E|----------0------------------4-------2-------|-0~--|


Repeat Intro/Verse: "As the days go by..." (x2) 


Repeat Pre-Chorus: "Will you stay..."(x2)


Repeat Chorus: "Leave me once, leave me twice..."(x2)


Interlude: "Don't say goodbye, just dry your eyes..."             (x1) 
e|-------------------------------------------------------------------|
B|-------------------------------------------------------------------|
G|-4444444444444444--------------------------------------------------|
D|-4444444444444444444444444444444466666666666666662222222222222222--|
A|-2222222222222222444444444444444466666666666666662222222222222222--|
E|-----------------222222222222222244444444444444440000000000000000--|
pm:''''''''''''''''''''''''''''''''''''''''''''''''''''''''''''''''


Outro: "Leave me once, leave me twice..."   (x2) End on.
e|---------------------------------------------|--------|
B|---------------------------------------------|--------|
G|-4------------------4------------------------|--------|
D|-4-(x16)--2---------4-(x16)--6-------4-------|--2~----|
A|-2--------2-(x16)---2--------6-(x8)--4 (x8)--|--2~----|
E|----------0------------------4-------2-------|--0~----|  


Let me know if you have any corrections, questions, comments, etc.
Thanks,

Enjoy,
Comments