All-american Rejects - Dont Leave Me Chords & Tabs

 

Dont Leave Me Chords & Tabs

All-american Rejects Chords & Tabs

Version: 1 Type: Bass Tab 0 ratings
1 star 2 stars 3 stars 4 stars 5 stars
comments

Dont Leave Me Bass Tab

-------------------------------------------------------------------------------
			 DON'T LEAVE ME - Blink-182
-------------------------------------------------------------------------------

Tabbed By : Spartan101
e-mail: zpro@sbcglobal.net

Tuning: Standard

Intro (x2)
G|------------------------------------|
D|------------------------------------|
A|--------4(x16)-2(x8)-4(x8)----------|
E|-2(x16)--------------------2(x16)---|
[ Tab from: http://www.guitartabs.cc/tabs/a/all_american_rejects/dont_leave_me_btab.html ]
Verse
G|---------------------------------------------------------|
D|--------1(x16)--------4(x16)-1(x16)-2(x16)---------------|
A|-1(x16)--------2(x16)----------------------2(x16)--------|
E|--------------------------------------------------2(x16)-|

Chorus (x2)                            after second time
G|------------------------------------|-----------------|
D|----------------------6(x16)-4(x16)-|-2~~~------------|
A|-2(x16)--------2(x16)---------------|-----------------|
E|--------0(x16)----------------------|-----------------|

Intro
Verse
Chorus

Bridge (after second "Don't say good-bye..." part)
G|-----------------------------|
D|--------4(x16)---------------|
A|-2(x16)--------6(x16)-7(x16)-|
E|-----------------------------|

Chorus


| ~  vibrato
===============================================================================
Comments