All-american Rejects - Dirty Little Secret Chords & Tabs

 

Dirty Little Secret Chords & Tabs

All-american Rejects Chords & Tabs

Version: 3 Type: Bass Tab

Dirty Little Secret Bass Tab

The All-American Rejects
Dirty Little Secret
Bass

Tuning : Standard

G|-----------------------------------------------------|
D|-----------------------------------------------------|
A|-----------------------------------------------------| x2
E|-66666666-44444444-----------------------------------|

G|-----------------------------------------------------|
D|-----------------------------------------------------|
A|-----------------------------------------------------| 
E|-88888888--------------------------------------------|
Pause!
Tell me…
G|-----------------------------------------------------|
D|-----------------------------------------------------|
A|-3-33---3-33-----------------6-66---6-66---88888888--|
E|---------------3-33---3-33---------------------------|

I’ll keep you…
G|-----------------------------------------------------|
D|-----------------------------------------------------|
A|------------66666666---------------------------------| x2
E|-66666666--------------33333333---11111111-----------|

My Dirty Little Secret…
G|-----------------------------------------------------|
D|-----------------------------------------------------|
A|-6-6-6-6(Let Ring)-----------------------------------|
E|-----------------------------------------------------|

…know… When we…
G|-----------------------------------------------------|
D|-----------------------------------------------------|
A|-----------------------------------------------------| x4
E|-66666666-44444444-----------------------------------|

Tell me…
G|-----------------------------------------------------|
D|-----------------------------------------------------|
A|-3-33---3-33-----------------6-66---6-66---88888888--|
E|---------------3-33---3-33---------------------------|
[ Tab from: http://www.guitartabs.cc/tabs/a/all_american_rejects/dirty_little_secret_btab_ver_3.html ]
I’ll keep…
G|-----------------------------------------------------|
D|-----------------------------------------------------|
A|------------66666666---------------------------------| x2
E|-66666666--------------33333333---11111111-----------|
My Dirty Little Secret…
G|-----------------------------------------------------|
D|-----------------------------------------------------|
A|-6-6-6-6---------------------------------------------|
E|-----------------------------------------------------|

The way she…
G|-----------------------------------------------------|
D|-----------------------------------------------------|
A|-3333------------------6666-------8888---------------| x2
E|------------3333-------------------------------------|

It’s eating me…
G|-----------------------------------------------------|
D|-----------------------------------------------------|
A|-33333333--------------66666666---88888888-----------|
E|------------33333333---------------------------------|

G|-----------------------------------------------------|
D|-----------------------------------------------------|
A|-----------------------------------------------------| x4
E|-66666666-44444444-----------------------------------|
Pause!
…one or…
G|-----------------------------------------------------|
D|-----------------------------------------------------|
A|------------666666----------8888888------------------|
E|-1/666666------------333333--------------------------|

I’ll keep you…
G|-----------------------------------------------------|
D|-----------------------------------------------------|
A|------------66666666---------------------------------| x2
E|-66666666--------------33333333---11111111-----------|

My Dirty Little Secret…
G|-----------------------------------------------------|
D|-----------------------------------------------------|
A|----------66666666-----------------------------------|
E|-66666666----------33333333-1(Let Ring)--------------|
Pause!
(Second)Who has to know…
G|-----------------------------------------------------|
D|-----------------------------------------------------|
A|-----------------------------------------------------| x2
E|-66666666-444444(Let It Ring!)-----------------------|