All-american Rejects - Dirty Little Secret Chords & Tabs

 

Dirty Little Secret Chords & Tabs

All-american Rejects Chords & Tabs

Version: 2 Type: Bass Tab

Dirty Little Secret Bass Tab

intro

G ---3--3-----------------------------------------|   x4
D ---------66-5-6-5-------------------------------|
A -1--1------------6------------------------------|
E --------4---------------------------------------|

G ------------------------------------------------|   x1
D 66-5-6-5----------------------------------------|
A ---------6--------------------------------------|
E ------------------------------------------------|

verse

G ------------------------------------------------|   x1
D ------------------------------------------------|
A -333--333-------------666--666----88888888------|
E ------------333--333----------------------------|

chorus

G ------------------------------------------------|
D ------------------------------------------------|
A -----------66666666-----------------------------|
E -66666666------------33333333--11111111---------|   x2

G ------------------------------------------------|
D ------------------------------------------------|
A -66666666-~~~-----------------------------------|
E ------------------------------------------------|   x1

verse

G ------------------------------------------------|
D ------------------------------------------------|
A -333--333-------------666--666----88888888------|
E ------------333--333----------------------------|   x1

chorus

G ------------------------------------------------|
D ------------------------------------------------|
A -----------66666666-----------------------------|
E -66666666------------33333333--11111111---------|   x2
[ Tab from: http://www.guitartabs.cc/tabs/a/all_american_rejects/dirty_little_secret_btab_ver_2.html ]
G ------------------------------------------------|
D ------------------------------------------------|
A -66666666-~~~-----------------------------------|
E ------------------------------------------------|   x1

bridge

G ------------------------------------------------|
D ----------------------3333----------------------|
A -3333----------6666-----------------------------|
E --------3333------------------------------------|   x2

G ------------------------------------------------|
D -------------------------------33333333---------|
A -33333333------------66666666-------------------|
E -----------33333333-----------------------------|   x1

intro/bass line

G ---3--3-----------------------------------------|   x4
D ---------66-5-6-5-------------------------------|
A -1--1------------6------------------------------|
E --------4---------------------------------------|

chorus

G ------------------------------------------------|
D ------------------------------------------------|
A -----------66666666-----------------------------|
E -66666666------------33333333--11111111---------|   x2

chorus

G ------------------------------------------------|
D ------------------------------------------------|
A -----------66666666-----------------------------|
E -66666666------------33333333--1~~~~~~1---------|   x1

G ---3--3---------------------------------------------|   x1
D ---------66-5-6-5-----------------------------------|
A -1--1------------6-~~~~~~~~~~~~~~~~~~~~~~~~~~~~~----|
E --------4-------------------------------------------|