All American Rejcts - Swing Swing Chords & Tabs

 

Swing Swing Chords & Tabs

All American Rejcts Chords & Tabs

Version: 1 Type: Tab 2 ratings
1 star 2 stars 3 stars 4 stars 5 stars
comments

Swing Swing Tab

ALL AMERICAN REJECTS
SWING SWING
NOT MY work ITS ALL AMERICAN REJECTS ALL CREDIT GOES TO THEM

Normal tuning pimps
[ Tab from: http://www.guitartabs.cc/tabs/a/all_american_rejcts/swing_swing_tab.html ]
INTRO
E|--------------------------------------------|     DO THAT 2X
B|--------------------------------------------|
G|------------------------------------5--5---5|
D|---5--5---5---4--4---4---2--2---2---5--5---5|
A|---5--5---5---4--4---4---2--2---2---3--3---3|
E|---3--3---3---2--2---2---0--0---0-----------|
then play this;
E|----------------------------------------------------------------------------|
B|----------------------------------------------------------------------------|
G|---------------------------7--7--7--7--7--7--7--7---------------------------|
D|---5--5--5--5--5--5--5--5--7--7--7--7--7--7--7--7--2--2--2--2--2--2--2--2--2|
A|---5--5--5--5--5--5--5--5--5--5--5--5--5--5--5--5--2--2--2--2--2--2--2--2--2|
E|---3--3--3--3--3--3--3--3-----------------------------0--0--0--0--0--0--0--0|
continue with this;
E|--------------------------|
B|--------------------------|
G|---5--5--5--5--5--5--5--5-|
D|---5--5--5--5--5--5--5--5-|
A|---3--3--3--3--3--3--3--3-|
E|--------------------------|
THIS IS THE CHORUS AND IS PLAYED AFTER 1ST PART OF INTRO
PEACE OUT HAV FUN PLAYAS
tabed by Kornkid101
Comments