All - Skin Deep Chords & Tabs

 

Skin Deep Chords & Tabs

All Chords & Tabs

Version: 1 Type: Tab 0 ratings
1 star 2 stars 3 stars 4 stars 5 stars
comments

Skin Deep Tab

Song: Skin Deep
Band: ALL
Album: Allroy For Prez (1988)

E|-------------|
B|-------------|
G|--6-6-6-6-9--|
D|--4-4-4-4-7--|
A|-------------|
E|-------------|

E|--------------------(2x)--------------------------|
B|--------------------------------------------------|
G|----6h7----------6h7----------6h7h9------6h7h9p6--|
D|--7-----9p7----7-----9p7----7----------7----------|
A|--------------------------------------------------|
E|--------------------------------------------------|

(I looked your way...)
E|-------------------------------------------------|
B|-------------------------------------------------|
G|----6h7----------6h7----------6h7h9------11p9p7--|
D|--7-----9p7----7-----9p7----7----------7---------|
A|-------------------------------------------------|
E|-------------------------------------------------|

(Not like a million...)
E|-------------------------------910-9--9--9--910-912--|
B|------------------------------101010-10-10-10101012--|
G|--99999999--1111111111111111-------------------------|
D|--99999999--1111111111111111-------------------------|
A|--77777777---9-9-9-9-9-9-9-9-------------------------|
E|-----------------------------------------------------|

(You would so carefully...)
E|------------------------------------------|
B|------------------------------------------|
G|------------77777777------------99999999--|
D|--99999999--77777777--77777777--99999999--|
A|--99999999--55555555--77777777--77777777--|
E|--77777777------------55555555------------|

(But you're just skin deep...)
E|------------------------------|
B|------------------------------|
G|--11111111--7777--------9999--|
D|--11111111--7777--7777--9999--|
A|---9-9-9-9--5555--7777--7777--|
E|------------------5555--------|

(Because you change...)
E|-------------------------------------------------|
B|-------------------------------------------------|
G|----6h7----------6h7----------6h7h9------11p9p7--|
D|--7-----9p7----7-----9p7----7----------7---------|
A|-------------------------------------------------|
E|-------------------------------------------------|
[ Tab from: http://www.guitartabs.cc/tabs/a/all/skin_deep_tab.html ]
(Bring back...)
E|-------------------------------910-9--9--9--910-912--|
B|------------------------------101010-10-10-10101012--|
G|--99999999--1111111111111111-------------------------|
D|--99999999--1111111111111111-------------------------|
A|--77777777---9-9-9-9-9-9-9-9-------------------------|
E|-----------------------------------------------------|

(In it comes...)
E|------------------------------------------|
B|------------------------------------------|
G|------------77777777------------99999999--|
D|--99999999--77777777--77777777--99999999--|
A|--99999999--55555555--77777777--77777777--|
E|--77777777------------55555555------------|

(But you're just skin deep...)
E|------------------------------|
B|------------------------------|
G|--11111111--7777--------9999--|
D|--11111111--7777--7777--9999--|
A|---9-9-9-9--5555--7777--7777--|
E|------------------5555--------|

(It's all done...)
E|------------------------------------------|
B|------------------------------------------|
G|------------77777777------------99999999--|
D|--99999999--77777777--77777777--99999999--|
A|--99999999--55555555--77777777--77777777--|
E|--77777777------------55555555------------|

(Reflection...)
E|------------------------------|
B|------------------------------|
G|--1111111111111111--77777777--|
D|--1111111111111111--77777777--|
A|---9-9-9-9-9-9-9-9--55555555--|
E|------------------------------|

(I looked your way...)
E|-------------------------------------------------|
B|-------------------------------------------------|
G|----6h7----------6h7----------6h7h9------11p9p7--|
D|--7-----9p7----7-----9p7----7----------7---------|
A|-------------------------------------------------|
E|-------------------------------------------------|

(You always have me...)
E|-------------------------------910-9--9--9--910-912--|
B|------------------------------101010-10-10-10101012--|
G|--99999999--1111111111111111-------------------------|
D|--99999999--1111111111111111-------------------------|
A|--77777777---9-9-9-9-9-9-9-9-------------------------|
E|-----------------------------------------------------|

(Sure like to know...)
E|------------------------------------------|
B|------------------------------------------|
G|------------77777777------------99999999--|
D|--99999999--77777777--77777777--99999999--|
A|--99999999--55555555--77777777--77777777--|
E|--77777777------------55555555------------|

(But you're just skin deep...)
E|------------------------------|
B|------------------------------|
G|--11111111--7777--------9999--|
D|--11111111--7777--7777--9999--|
A|---9-9-9-9--5555--7777--7777--|
E|------------------5555--------|

That's it. I didn't give the strumming pattern 'cause I'm too lazy
and kinda in a rush. It's really a simple song tho. shouldn't be too  hard.
Comments