All - Gnutheme Chords & Tabs

 

Gnutheme Chords & Tabs

All Chords & Tabs

Version: 1 Type: Tab 0 ratings
1 star 2 stars 3 stars 4 stars 5 stars
comments

Gnutheme Tab

e|-------------7------4-7--3-----4-7--5--4-----5--7--5--4-----------5--4------|
B|-------4-5-4----5-4----------------------7--------------7--5-----------5-5--|
G|--4-6-----------------------6--------------------------------6--4-----------|
D|----------------------------------------------------------------------------|
A|----------------------------------------------------------------------------|
E|----------------------------------------------------------------------------|

e|-----------------------|--7--5--4----------------------------------4-5--4---|
B|--5-5-5-5-5-5-5-5-5-5--|----------7-----------------------------------------|
G|-----------------------|-------------7--7--7--7--7--7--7--7--7--7-----------|
D|-----------------------|----------------------------------------------------|
A|-----------------------|----------------------------------------------------|
E|-----------------------|----------------------------------------------------|

e|--------------------------------------5--4----------------------------------|
B|--7--5-------------------------------------7--5-----------------------------|
G|-------6--6--6--6--6--6--6--6--6--6-------------5--5--5--5--5--5--5--5--4---|
D|----------------------------------------------------------------------------|
A|----------------------------------------------------------------------------|
E|----------------------------------------------------------------------------|

e|--4-4----------5--5--4------4-----------------------------|--------4-4-5----|
B|------7--5-------------7--------7--5-5-5-5-5-5-5-5-5-5-5-5|--7--7-----------|
G|-----------5--------------6-------------------------------|-----------------|
D|----------------------------------------------------------|-----------------|
A|----------------------------------------------------------|-----------------|
E|----------------------------------------------------------|-----------------|
[ Tab from: http://www.guitartabs.cc/tabs/a/all/gnutheme_tab.html ]
e|--5--5--5--5--5------------------------5--5--4-4-4-4-4-4--------------------|
B|-----------------7--7--4-4-4-4-4-4-4-4-------------------5-5----------------|
G|-------------------------------------------------------------6--6--6--6--6--|
D|----------------------------------------------------------------------------|
A|----------------------------------------------------------------------------|
E|----------------------------------------------------------------------------|

e|-----4-4--------------------------------------------------------------------|
B|---------7--7--7--7--7--7--4-4---------4-4-7-7-5-5-5-5-5-5-5-5-5-5-5-5-5-5--|
G|--6----------------------------4-4-4-4--------------------------------------|
D|----------------------------------------------------------------------------|
A|----------------------------------------------------------------------------|
E|----------------------------------------------------------------------------|

e|-------------7--4-4-7--4-4-7--5--4----5--7--5--4-----------5--4-------------|
B|-------4-5-4-----------------------7-------------7--5-----------5-5-5-5-5-5-|
G|--4-6-------------------------------------------------6--4------------------|
D|----------------------------------------------------------------------------|
A|----------------------------------------------------------------------------|
E|----------------------------------------------------------------------------|

e|--4-4-4-4-4-4--|----------7--7--7--5--5--5--4-4-----------------------------|
B|---------------|--4-4-7-7---------------------------------------------------|
G|---------------|--------------------------------6--6--4-4-2-2-1-1-----------|
D|---------------|--------------------------------------------------2---------|
A|---------------|------------------------------------------------------------|
E|---------------|------------------------------------------------------------|

Watched video of Stephen, looks like he plays it this way.
email= za7ch@hotmail.com
Comments